MUZBANK



A Most Complete Bank Of Music Information

МУЗЫКАЛЬНО-ИНФОРМАЦИОННЫЙ БАНК

Поиск по сайту







    HH-blockx • The Power (аккорды и текст - chords & lyrics)


    500

    Print

    Видео «The Power (H-blockx)»

    Видео клипы к песне подбираются автоматически сайтом youtube. Возможны некоторые несоответствия клипов песне.

    ↑ Спрятать рекламу ↑



    Download


     
    
    
    
    
    Tuning: Drop Db if this dunt sound rite the try just drop D
    
    Intro
    eb:------------------------------------------------
    bb:------------------------------------------------
    gb:------------------------------------------------
    db:--xx-0-x-x-xx-5-x-x-xx-0-x-x-xx-5-x-------------
    ab:--xx-0-x-x-xx-5-x-x-xx-0-x-x-xx-5-x-------------
    db:--xx-0-x-x-xx-5-x-x-xx-0-x-x-xx-5-x-------------
    pm   ..   . . ..   . . ..   . . ..   .
    
    eb:------------------------
    bb:--------------------5^--   <--Not sure bout this note but it sounds fine only use this 
    gb:------------------------       note on the 2nd time round (use wah)
    db:-00-22-5-2-2h(3p2)-------
    ab:-00-22-5-2-2h(3p2)-------  x8
    db:-00-22-5-2-2h(3p2)-------
    
    Verse 
    
    eb:-----------
    bb:-----------   This is heard faintly in the background so just play this a few times
    gb:-----------
    db:-xx-0------
    ab:-xx-0------
    db:-xx-0------
                    
    Pre chorus   
    
    eb:-----------------------------
    bb:-5^--------------------------
    gb:-----------------------------
    db:---0-22/5\2-2h3p2------------ x4
    ab:-----------------------------
    db:-----------------------------
    
    eb:------------------------
    bb:--------------------5^--  
    gb:------------------------   x8    
    db:-00-22-5-2-2h3p2--------
    ab:-00-22-5-2-2h3p2--------
    db:-00-22-5-2-2h3p2--------
    
    
    Pre chorus   
    
    eb:-----------------------------
    bb:-5^--------------------------
    gb:-----------------------------
    db:---0-22/5\2-2h3p2------------ x4
    ab:-----------------------------
    db:-----------------------------
      
    eb:------------------------
    bb:--------------------5^--  
    gb:------------------------   x8    
    db:-00-22-5-2-2h3p2--------
    ab:-00-22-5-2-2h3p2--------
    db:-00-22-5-2-2h3p2--------
    
    eb:------------------------------------
    bb:------------------------------------
    gb:----------------------9999----------
    db:-00-xx-00-xx-00-xx-00-xxxx---------- x4
    ab:-00-xx-00-xx-00-xx-00-7777----------
    db:-00-xx-00-xx-00-xx-00---------------
    
    
    From the crack of the whip I attack,
    front to back in this thing called rap.
    Diggi dig it like shovel rhyme devil on a heavenly level
    bang the bass. Turn up the treble.
    Radical mind day and night all the time
    7 - 14 wise devine.
    Maniac brainiac winning the game,
    IВґm the lyrical Jesse James
    
    Ohhuohoh....
    
    Ref.:
    IВґve got the power
    
    Quality I possess some say I'm fresh
    when my voice goes through the rest of the
    mi-crophone that I am holding,
    copywritten lyrics so they can't be stolen,
    if they are H-blockx don't need the police
    so try to save them your voice will sink
    so please stay off my back
    or I will attack and you don't want that
    
    Ohhuohoh...
    
    Ref.:
    IВґve got the power 
    
    Like a demon I'm steaming like a crook I'm fiending
    tell the opposition color whip creaming
    shredding skim with the lyrics rhyme breaking the bone
    through your soul with the tone of my microphone.
    In this game of life I will try to survive
    and take your time you bring us all nose jive.
    Superman's strong even in my last hour
    H-blockx in the house T-Love we got the power
     

    Тональность:

    Нет текста!



    Назад
    Рекомендуем посмотреть другие песни исполнителя «H-blockx»:

    • Комментарии Facebook ()
    • Комментарии ВКонтакте



    Добавить в Избранное Браузера
    Сохранить здесь Очистить


    x

    0


    +
    -

    +
    -

    -

    Авторизация





    Зарегистрироваться

    M

    Дата и время

    • 07:32:58
       

    Социальные ссылки


    Наши приложения

    • Muzbank App Play Market
    • Muzbank Amazon App