MUZBANK



A Most Complete Bank Of Music Information

МУЗЫКАЛЬНО-ИНФОРМАЦИОННЫЙ БАНК

Поиск по сайту







    HH2o • Role Model (аккорды и текст - chords & lyrics)


    213

    Print

    Видео «Role Model (H2o)»

    Видео клипы к песне подбираются автоматически сайтом youtube. Возможны некоторые несоответствия клипов песне.

    ↑ Спрятать рекламу ↑



    Download



     
    
    
    -----------------------------------------------------------------
    			H2O - Role Model
    			   Album: Go
    	      Tabbed by DTMax - dtmax_@hotmail.com
    -----------------------------------------------------------------
    
    
    	VERSE
    e|-------------------------------------------------|
    B|-------------------------------------------------|
    G|-----55----------55----------55------2222-55-77--|
    D|-222-55-5555-222-55-5555-222-55-5555-2222-55-77--|
    A|-222-33-5555-222-33-5555-222-33-5555-0000-33-55--|
    E|-000----3333-000----3333-000----3333-------------|
    PM ...         ...         ...       
    
    
    	BRIDGE
    e|----------------------------------------------------------------|
    B|----------------------------------------------------------------|
    G|-5555-7777------10-10-10-10-9-7-5555-7777------12-12-12-12-10-9-|
    D|-5555-7777-3333-10-10-10-10-9-7-5555-7777-3333-12-12-12-12-10-9-|
    A|-3333-5555-3333--8--8--8--8-7-5-3333-5555-3333-10-10-10-10--8-7-|
    E|-----------1111---------------------------1111------------------|
    PM ....                           ....
    
    
    	CHORUS
    e|--------------------------------------|
    B|--------------------------------------|
    G|-5555-7777-10-10-10-10-12-10-12-10-12-|
    D|-5555-7777-10-10-10-10-12-10-12-10-12-|
    A|-3333-5555--8--8--8--8-10--8-10--8-10-|
    E|--------------------------------------|
    
    e|------------------|
    B|------------------|
    G|--5--9--7--9--10--|(on every 4th time chorus is played, 
    D|------------------|    guitar 2 plays this)
    A|------------------|
    E|------------------|
    
    	SOLO Guitar 1
    e|---------------------------------------------------------------|
    B|---------------------------------------------------------------|
    G|-5-9-7-9-10-10-10-10-10-10-5-9-7-9-5-5-5-5-5-5-5-5/12-12-12-12-|
    D|---------------------------------------------------------------|
    A|---------------------------------------------------------------|
    E|---------------------------------------------------------------|
    
    	SOLO Guitar 2
    e|------------------------------------------------------------|
    B|------------------------------------------------------------|
    G|-5555-7777-1010101010101010-5555-7777-1010101010101010-5555-|
    D|-5555-7777-1010101010101010-5555-7777-1010101010101010-5555-|
    A|-3333-5555--8-8-8-8-8-8-8-8-3333-5555--8-8-8-8-8-8-8-8-3333-|
    E|------------------------------------------------------------|
    
    	SOLO FINISH
    e|---------------|
    B|---------------|
    G|-3333-33333333-|
    D|-3333-33333333-|
    A|-1111-11111111-|
    E|---------------|
    PM ....
    
    	INTERLUDE Guitar 1
    e|----------------------------------------------------------------|
    B|----------------------------------------------------------------|
    G|-55555555-2222222-----------------5555555-2222222---------5-7---|
    D|-55555555-2222222-3333333-5555555-5555555-2222222-3333333-5-7-3-|
    A|-33333333-0000000-3333333-5555555-3333333-0000000-3333333-3-5-3-|
    E|------------------1111111-3333333-----------------1111111-----1-|
    
    	INTERLUDE Guitar 2
    e|----------------------------------|
    B|----------------------------------|
    G|---5---9-7-5-4---9-7-5-2---5--7---|
    D|----------------------------------|
    A|----------------------------------|
    E|----------------------------------|
    
    	FILL IN
    e|--------------------|
    B|--------------------|
    G|----------5---5/12--|
    D|-33333333-5---5/12--|
    A|-33333333-3---3/10--|
    E|-11111111-----------|
    PM ........
    
    
    	INTEERLUDE 2 Guitar 1
    e|----------------|
    B|----------------|
    G|--10-10-10-10---|(this is played 5 times,
    D|--10-10-10-10---| Guitar 2 comes in on 4th time.)
    A|---8--8--8--8---|
    E|----------------|
    
    
    e|------------------------------------------|
    B|------------------------------------------|
    G|------7777-55555555--------7777-55555555--|
    D|-5555-7777-55555555---5555-7777-55555555--|
    A|-5555-5555-33333333---5555-5555-33333333--|
    E|-3333-----------------3333----------------|
    
    
    -----------------------------------------------------------------
    			    Breakdown
    -----------------------------------------------------------------
    
    CHORUS x4
    VERSE x2
    BRIDGE
    CHORUS x4
    VERSE x2
    BRIDGE
    CHORUS x4
    SOLO
    SOLO FINISH
    INTERLUDE
    FILL IN
    INTERLUDE 2
    CHORUS x8
    
    
    Thats all have fun
     

    Тональность:

    Нет текста!



    Назад
    Рекомендуем посмотреть другие песни исполнителя «H2o»:

    • Комментарии Facebook ()
    • Комментарии ВКонтакте



    Добавить в Избранное Браузера
    Сохранить здесь Очистить


    x

    0


    +
    -

    +
    -

    -

    Авторизация





    Зарегистрироваться

    M

    Дата и время

    • 05:18:56
       

    Социальные ссылки


    Наши приложения

    • Muzbank App Play Market
    • Muzbank Amazon App