MUZBANK



A Most Complete Bank Of Music Information

МУЗЫКАЛЬНО-ИНФОРМАЦИОННЫЙ БАНК

Поиск по сайту







    HHammerFall • Always Will Be (аккорды и текст - chords & lyrics)


    420

    Print

    Видео «Always Will Be (HammerFall)»

    Видео клипы к песне подбираются автоматически сайтом youtube. Возможны некоторые несоответствия клипов песне.

    ↑ Спрятать рекламу ↑



    Download



     
    
    
    Hammerfall- always will be
    Tabbed by:  ( silkmoth)
    
    I tabbed this from the hammerfall TAPE..I had to keep rewinding over and over
    It was a real pain lol. If i missed anything, please feel free to add the missing
    parts..This is most of it though.....
     
    
    Intro
    
     
      Gtr I
    |---------1-------3-|--(3)--------1-(1)----------|
    |------3----3-------|-------3------------3-----3-|
    |----2---------2----|----------2------------2----|
    |-0-----------------|----------------------------|
    |-------------------|----------------------------|
    |-------------------|----------------------------|
    |
    | Gtr II
    |-------------------|----------------------------|
    |-------------------|----------------------------|
    |--------14---14-14-|-(14)-12-12-14-14--10-10-12-|
    |-------------------|----------------------------|
    |-------------------|----------------------------|
    |-------------------|----------------------------|
    
    
    |---------------------|--------------------------|
    |-----------5---------|-----------5--------------|
    |-------5-------5-----|---------5----------------|
    |-----5-----------5---|-------7------------------|
    |--3------------------|-----7--------------------|
    |-------------------5-|-(5)----------------------|
    |
    |---------------------|--------------------------|
    |---------------------|--------------------------|
    |-12------(12)-10-9-9-|-(9)-------9b10r(9)-------|
    |---------------------|--------------------12-10-|
    |---------------------|--------------------------|
    |---------------------|--------------------------|
    
    
    |--------------------|--------------------------|
    |----------6-------8-|-(8)-------6-(6)----------|
    |-------7-----7------|-----7------------7-----7-|
    |-----7---------7----|--------7------------7----|
    |--5-----------------|--------------------------|
    |--------------------|--------------------------|
    |
    |--------------------|--------------------------|
    |--------------------|--------------------------|
    |---------------9-10-|-----9-10-12--------12-14-|
    |-12------10-12------|-12----------14--15-------|
    |--------------------|--------------------------|
    |--------------------|--------------------------|
    
    
    |-------------5-----------|----------------------3-------|
    |---------6-------6-------|------------------5-----------|
    |-------5------------5----|--------------5---------------|
    |---3---------------------|-------5----------------------|
    |-----------------------3-|--(3)---------------------5-7-|
    |-------------------------|------------------------------|
    |
    |-------------------------|------------------------------|
    |-------------------------|------------------------------|
    |-(14)------(14)-10-12-14-|-(14)-14b15r(14)-12-(12)------|
    |-------------------------|------------------------------|
    |-------------------------|------------------------------|
    |-------------------------|------------------------------|
    
    
    |--------------------|----------------------------|
    |----------6-------8-|--(8)--------6-(6)----------|
    |-------7----7-------|-------7------------7-----7-|
    |-----7---------7----|----------7------------7----|
    |-5------------------|----------------------------|
    |--------------------|----------------------------|
    |
    |--------------------|----------------------------|
    |---------15------17-|-(17)----18----17-----15----|
    |----14--------14----|------14----14-----14----14-|
    |--------------------|----------------------------|
    |--------------------|----------------------------|
    |--------------------|----------------------------|
    
    
    |-----------------------|----------------------|
    |-----------5-----------|-------------5--------|
    |-------5-------5-------|----------5-----------|
    |-----5------------5----|--------7-------------|
    |--3------------------0-|--(0)-7---------------|
    |-----------------------|----------------------|
    |
    |-----------------------|----------------------|
    |-17------(17)-15-13-13-|-(13)-------13-15-17--|
    |-----------------------|----------------------|
    |-----------------------|----------------------|
    |-----------------------|----------------------|
    |-----------------------|----------------------|
    
    
    |-----------1---------3-|--(3)--------1--(1)---------|
    |-------3-------3-------|-------3-------------3----3-|
    |-----2------------2----|----------2-------------2---|
    |--0--------------------|----------------------------|
    |-----------------------|----------------------------|
    |-----------------------|----------------------------|
    |
    |-----------------------|----------------------------|
    |-18------(18)-15-17-18-|-(18)-15-17-18-(18)-17-15---|
    |-----------------------|----------------------------|
    |-----------------------|----------------------------|
    |-----------------------|----------------------------|
    |-----------------------|----------------------------|
    
    
    |----------------------5----------------------|
    |----------------6----------6-----------------|
    |-----------5---------------------5-----------|
    |--3------------------------------------------|
    |--------------------------------------3------|
    |---------------------------------------------|
    |
    |----------15------15-17-15---17-18-17---(17)-|
    |-18-17-18----18------------------------------|
    |---------------------------------------------|
    |---------------------------------------------|
    |---------------------------------------------|
    |---------------------------------------------|
    
    
                                     1st Verse
    |----------------------3-------||--------1-----3-|
    |------------------5-----------||------3---3-----|
    |--------------5---------------||----2-------2---|
    |-------5------------------0-2-||-0--------------|
    |--(3)-------------------------||----------------|
    |------------------------------||----------------|
    |
    |-(17)-17b18r(17)-15-(15)------||----------------|
    |------------------------------||----------------|
    |------------------------------||----------------|
    |------------------------------||----------------|
    |------------------------------||----------------|
    |------------------------------||----------------|
    
    
    |-(3)-----1-(1)-------|----------------|
    |-----3---------3---3-|--------5-------|
    |-------2---------2---|------5---5-----|
    |---------------------|----5-------5---|
    |---------------------|-3------------0-|
    |---------------------|----------------|
    |
    |---------------------|----------------|
    |---------------------|----------------|
    |---------------------|----------------|
    |---------------------|----------------|
    |---------------------|----------------|
    |---------------------|----------------|
    
    
    |----------------|--------1-----3-|-(3)-----1-(1)-------|--------5-------|
    |-----------5----|------3---3-----|-----3---------3---3-|------6---6-----|
    |---------5------|----2-------2---|-------2---------2---|----5-------5---|
    |-------7--------|-0--------------|---------------------|-3--------------|
    |-(0)-7----------|----------------|---------------------|--------------3-|
    |----------------|----------------|---------------------|----------------|
    
    
    |-----------3------|--------1-----3-|-(3)-----1-(1)-------|----------------|
    |---------5--------|------3---3-----|-----3---------3---3-|--------5-------|
    |-------5----------|----2-------2---|-------2---------2---|------5---5-----|
    |-----5--------0-2-|-0--------------|---------------------|----5-------5---|
    |-(3)--------------|----------------|---------------------|-3------------0-|
    |------------------|----------------|---------------------|----------------|
    
    
    |-----------0----|--------1-----3-|-(3)-----1-(1)-------|--------5-------|
    |---------1------|------3---3-----|-----3---------3---3-|------6---6-----|
    |-------2--------|----2-------2---|-------2---------2---|----5-------5---|
    |-----2----------|-0--------------|---------------------|-3--------------|
    |-(0)------------|----------------|---------------------|--------------3-|
    |----------------|----------------|---------------------|----------------|
    
    
                       Chorus
                        A                                       G
      Gtr III
                        |                     |                 |
                        o                     /                 o
    
    |-----------3----||---5-(5)----5-(5)---|------------------|---3-(3)----3-(3)---|
    |---------5------||---5-(5)----5-(5)-5-|-(5)-------5------|---3-(3)----3-(3)-3-|
    |-------5--------||---5-(5)----5-(5)---|-----5---5---5----|---4-(4)----4-(4)---|
    |-----5----------||-7--------7---------|-------7-------7--|-5--------5---------|
    |-(3)------------||-7--------7---------|------------------|-5--------5---------|
    |----------------||-5--------5---------|------------------|-3--------3---------|
    
    
      G                  F                                       C
       |                 |                     |                 |
       o                 o                     /                 o
    
    |------------------|---1-(1)----1-(1)---|------------------|---0-(0)--0---0--|
    |-(3)-------3------|---1-(1)----1-(1)-1-|-(1)-------1------|---1-(1)---------|
    |-----4---4---4----|---2-(2)----2-(2)---|-----2---2---2----|-0----------0----|
    |-------5-------5--|-3--------3---------|-------3-------3--|-2---------------|
    |------------------|-3--------3---------|------------------|-3---------------|
    |------------------|-1--------1---------|------------------|-----------------|
    
    
      C                   A
      |                   |
      o                   o
    
    |-------------------|---5-(5)----5-(5)---|
    |---------0h1p0-----|---5-(5)----5-(5)-5-|
    |---0-----------0---|---5-(5)----5-(5)---|
    |-2-----2---------2-|-7--------7---------|
    |-----2-------------|-7--------7---------|
    |-------------------|-5--------5---------|
    
    
                         G
       |                 |
       /                 o
    
    |------------------|---3-(3)----3-(3)----|
    |-(5)-------5------|---3-(3)----3-(3)-3--|
    |-----5---5---5----|---4-(4)----4-(4)----|
    |-------7-------7--|-5--------5----------|
    |------------------|-5--------5----------|
    |------------------|-3--------3----------|
    
    
      G                  C                                       D
       |                 |                     |                 |
       o                 o                     /                 o
    
    |------------------|---0-(0)----0-(0)---|-----0-------0----|---2-(2)--(2)----|
    |-(3)-------3------|---1-(1)----1-(1)---|-------1---1---1--|---3-(3)--(3)----|
    |-----4---4---4----|-0--------0-------0-|-(0)-----0--------|-2---------------|
    |-------5-------5--|-2--------2---------|------------------|-0---------------|
    |------------------|-3--------3---------|------------------|-----------------|
    |------------------|--------------------|------------------|-----------------|
    
    
                   2nd Verse
      D             F                 A                 F       A
       |            |                 |                 |       |
       o            o                 o                 o       o
    
    |-(2)--------||---------1-------|---------0-------|---1-------0-----|
    |-(3)--------||-------1---1-----|-------1---1-----|-----1-------1---|
    |------------||-----2-------2---|-----2-------2---|-------2-------2-|
    |------------||---3-----------3-|---2-----------2-|-----------------|
    |------------||-----------------|-0---------------|---------0-------|
    |------------||-1---------------|-----------------|-1---------------|
    |
    | Gtr IV
    |------------||-1-------1---1---|-0-------0---0---|-1---1-1-0---0-0-|
    |------------||-1-------1---1---|-1-------1---1---|-1---1-1-1---1-1-|
    |------------||-2-------2---2---|-2-------2---2---|-2---2-2-2---2-2-|
    |------------||-3-------3---3---|-2-------2---2---|-3---3-3-2---2-2-|
    |------------||-3-------3---3---|-0-------0---0---|-3---3-3-0---0-0-|
    |------------||-1-------1---1---|-----------------|-1---1-1---------|
    
    
      G                 D                 F       G         A
      |                 |                 |       |         |
      o                 o                 o       o         o
    
    |-----------------|-------1-5-1-----|---5-------7-----|-5----||
    |-3-------3-------|-----3-------3---|-----6-------8---|-5----||
    |---4---4---4---4-|---2-----------2-|-------5-------7-|-5----||
    |-----5-------5---|-0---------------|-3-------5-------|-7----||
    |-----------------|-----------------|-----------------|-7----||
    |-----------------|-----------------|-----------------|-5----||
    |
    |-3---3-3-3---3-3-|-5-------5---5---|-5-------7-------|-5----||
    |-3---3-3-3---3-3-|-6-------6---6---|-6-------8-------|-5----||
    |-0---0-0-0---0-0-|-7-------7---7---|-5-------7-------|-5----||
    |-0---0-0-0---0-0-|-7-------7---7---|-7-------5-------|-7----||
    |-2---2-2-2---2-2-|-5-------5---5---|-8---------------|-7----||
    |-3---3-3-3---3-3-|-----------------|-----------------|-5----||
    
    
      A
       |
       o
    
    |-(5)--------|--------1-----3-|-(3)-----1-(1)-------|----------------|
    |-(5)--------|------3---3-----|-----3---------3---3-|--------5-------|
    |-(5)--------|----2-------2---|-------2---------2---|------5---5-----|
    |-(7)--------|-0--------------|---------------------|----5-------5---|
    |-(7)--------|----------------|---------------------|-3------------0-|
    |-(5)--------|----------------|---------------------|----------------|
    
    
    |-----------0----|--------1-----3-|-(3)-----1-(1)-------|--------5-------|
    |---------1------|------3---3-----|-----3---------3---3-|------6---6-----|
    |-------2--------|----2-------2---|-------2---------2---|----5-------5---|
    |-----2----------|-0--------------|---------------------|-3--------------|
    |-(0)------------|----------------|---------------------|--------------3-|
    |----------------|----------------|---------------------|----------------|
    
    
    |-----------3------|--------1-----3-|-(3)-----1-(1)-------|----------------|
    |---------5--------|------3---3-----|-----3---------3---3-|--------5-------|
    |-------5----------|----2-------2---|-------2---------2---|------5---5-----|
    |-----5--------0-2-|-0--------------|---------------------|----5-------5---|
    |-(3)--------------|----------------|---------------------|-3------------0-|
    |------------------|----------------|---------------------|----------------|
    
    
    |-----------0----|--------1-----3-|-(3)-----1-(1)-------|--------5-------|
    |---------1------|------3---3-----|-----3---------3---3-|------6---6-----|
    |-------2--------|----2-------2---|-------2---------2---|----5-------5---|
    |-----2----------|-0--------------|---------------------|-3--------------|
    |-(0)------------|----------------|---------------------|--------------3-|
    |----------------|----------------|---------------------|----------------|
    
    
                       Chorus
                        A                                       G
                        Gtr III
                        |                     |                 |
                        o                     /                 o
    
    |-----------3----||---5-(5)----5-(5)---|------------------|---3-(3)----3-(3)---|
    |---------5------||---5-(5)----5-(5)-5-|-(5)-------5------|---3-(3)----3-(3)-3-|
    |-------5--------||---5-(5)----5-(5)---|-----5---5---5----|---4-(4)----4-(4)---|
    |-----5----------||-7--------7---------|-------7-------7--|-5--------5---------|
    |-(3)------------||-7--------7---------|------------------|-5--------5---------|
    |----------------||-5--------5---------|------------------|-3--------3---------|
    
    
      G                  F                                       C
       |                 |                     |                 |
       o                 o                     /                 o
    
    |------------------|---1-(1)----1-(1)---|------------------|---0-(0)--0---0--|
    |-(3)-------3------|---1-(1)----1-(1)-1-|-(1)-------1------|---1-(1)---------|
    |-----4---4---4----|---2-(2)----2-(2)---|-----2---2---2----|-0----------0----|
    |-------5-------5--|-3--------3---------|-------3-------3--|-2---------------|
    |------------------|-3--------3---------|------------------|-3---------------|
    |------------------|-1--------1---------|------------------|-----------------|
    
    
      C                   A
      |                   |
      o                   o
    
    |-------------------|---5-(5)----5-(5)---|
    |---------0h1p0-----|---5-(5)----5-(5)-5-|
    |---0-----------0---|---5-(5)----5-(5)---|
    |-2-----2---------2-|-7--------7---------|
    |-----2-------------|-7--------7---------|
    |-------------------|-5--------5---------|
    
    
                         G
       |                 |
       /                 o
    
    |------------------|---3-(3)----3-(3)----|
    |-(5)-------5------|---3-(3)----3-(3)-3--|
    |-----5---5---5----|---4-(4)----4-(4)----|
    |-------7-------7--|-5--------5----------|
    |------------------|-5--------5----------|
    |------------------|-3--------3----------|
    
    
      G                  C                                       D
       |                 |                     |                 |
       o                 o                     /                 o
    
    |------------------|---0-(0)----0-(0)---|------------------|---2-(2)--(2)----|
    |-(3)-------3------|---1-(1)----1-(1)---|------------------|---3-(3)--(3)----|
    |-----4---4---4----|-0--------0-------0-|-(0)-------0------|-2---------------|
    |-------5-------5--|-2--------2---------|-----2---2---2----|-0---------------|
    |------------------|-3--------3---------|-------3-------3--|-----------------|
    |------------------|--------------------|------------------|-----------------|
    
    
                   Bridge
      D             F                 A                 F       A
       |            |                 |                 |       |
       o            o                 o                 o       o
    
    |-(2)--------||-----------------|---------0-------|-----------------|
    |-(3)--------||---------1-------|-------1---1-----|---------------1-|
    |------------||-------2---2-----|-----2-------2---|-------2-----2---|
    |------------||-----3-------3---|---2-----------2-|-----3-----2-----|
    |------------||---3-----------3-|-0---------------|---3-----0-------|
    |------------||-1---------------|-----------------|-1---------------|
    |
    | Gtr IV
    |------------||-1-------1---1---|-0-------0---0---|-1---1-1-0---0-0-|
    |------------||-1-------1---1---|-1-------1---1---|-1---1-1-1---1-1-|
    |------------||-2-------2---2---|-2-------2---2---|-2---2-2-2---2-2-|
    |------------||-3-------3---3---|-2-------2---2---|-3---3-3-2---2-2-|
    |------------||-3-------3---3---|-0-------0---0---|-3---3-3-0---0-0-|
    |------------||-1-------1---1---|-----------------|-1---1-1---------|
    
    
      G                 D                 F       G         A
      |                 |                 |       |         |
      o                 o                 o       o         o
    
    |-----------------|-------1-5-1-----|---5-1-----7-----|---------5-0-----|
    |-3-------3-------|-----3-------3---|-------1-----8---|-------1-----1---|
    |---4---4---4---4-|---2-----------2-|---------0-----7-|-----2---------2-|
    |-----5-------5---|-0---------------|-3---------------|---2-------------|
    |-----------------|-----------------|-----------------|-0---------------|
    |-----------------|-----------------|-----------------|-----------------|
    |
    |-3---3-3-3---3-3-|-5-------5---5---|-5-------7-------|-5-------5---5---|
    |-3---3-3-3---3-3-|-6-------6---6---|-6-------8-------|-5-------5---5---|
    |-0---0-0-0---0-0-|-7-------7---7---|-5-------7-------|-5-------5---5---|
    |-0---0-0-0---0-0-|-7-------7---7---|-7-------5-------|-7-------7---7---|
    |-2---2-2-2---2-2-|-5-------5---5---|-8---------------|-7-------7---7---|
    |-3---3-3-3---3-3-|-----------------|-----------------|-5-------5---5---|
    
    
      F                 A                 F       A         G
      |                 |                 |       |         |
      o                 o                 o       o         o
    
    |-----------------|---------0-------|-----------------|-----------------|
    |---------1-------|-------1---1-----|---------------1-|-3-------3-------|
    |-------2---2-----|-----2-------2---|-------2-----2---|---4---4---4---4-|
    |-----3-------3---|---2-----------2-|-----3-----2-----|-----5-------5---|
    |---3-----------3-|-0---------------|---3-----0-------|-----------------|
    |-1---------------|-----------------|-1---------------|-----------------|
    |
    |-1-------1---1---|-0-------0---0---|-1---1-1-0---0-0-|-3---3-3-3---3-3-|
    |-1-------1---1---|-1-------1---1---|-1---1-1-1---1-1-|-3---3-3-3---3-3-|
    |-2-------2---2---|-2-------2---2---|-2---2-2-2---2-2-|-0---0-0-0---0-0-|
    |-3-------3---3---|-2-------2---2---|-3---3-3-2---2-2-|-0---0-0-0---0-0-|
    |-3-------3---3---|-0-------0---0---|-3---3-3-0---0-0-|-2---2-2-2---2-2-|
    |-1-------1---1---|-----------------|-1---1-1---------|-3---3-3-3---3-3-|
    
    
      D                 F       G         A
      |                 |       |         |                  |
      o                 o       o         o                  /
    
    |-------1-5-1-----|---5-------7-----|---------5-0-----|--------||
    |-----3-------3---|-----6-------8---|-------1-----1---|--------||
    |---2-----------2-|-------5-------7-|-----2---------2-|--------||
    |-0---------------|-3-------5-------|---2-------------|--------||
    |-----------------|-----------------|-0---------------|--------||
    |-----------------|-----------------|-----------------|--------||
    |
    |-5-------5---5---|-5-------7-------|-5---------------|-(5)----||
    |-6-------6---6---|-6-------8-------|-5---------------|-(5)----||
    |-7-------7---7---|-5-------7-------|-5---------------|-(5)----||
    |-7-------7---7---|-7-------5-------|-7---------------|-(7)----||
    |-5-------5---5---|-8---------------|-7---------------|-(7)----||
    |-----------------|-----------------|-5---------------|-(5)----||
    
    
     Chorus
      C                 D                 B                 E
      |                 |                 |                 |
      o                 o                 o                 o
    
    |---3-------------|-----------------|---2-----2-------|---3-----3-------|
    |---5-----5-------|---7-----7-------|---3---3---3---3-|-5-----5---5---5-|
    |-5-----5---5---5-|-7-----7---7---7-|-4---4-------4---|-4---4-------4---|
    |-5---5-------5---|-7---7-------7---|-4---------------|-2---------------|
    |-3---------------|-5---------------|-2---------------|-----------------|
    |-----------------|-----------------|-----------------|-----------------|
    |
    |-3-------3---3-3-|-2-------2---2-2-|-2-------2---2-2-|-3-------3---3-3-|
    |-5-------5---5-5-|-3-------3---3-3-|-3-------3---3-3-|-5-------5---5-5-|
    |-5-------5---5-5-|-2-------2---2-2-|-4-------4---4-4-|-4-------4---4-4-|
    |-5-------5---5-5-|-0-------0---0-0-|-4-------4---4-4-|-2-------2---2-2-|
    |-3-------3---3-3-|-----------------|-2-------2---2-2-|-----------------|
    |-----------------|-----------------|-----------------|-----------------|
    
    
      G                 D                 B
      |                 |                 |                 |
      o                 o                 o                 /
    
    |---3-------3-----|-----------------|---2-----2-------|---2-----2-------|
    |---3-----3---3---|---7-----7-------|---3---3---3---3-|---3---3---3---3-|
    |---4---4-------4-|-7-----7---7---7-|-4---4-------4---|-4---4-------4---|
    |-5---5-----------|-7---7-------7---|-4---------------|-4---------------|
    |-5---------------|-5---------------|-2---------------|-2---------------|
    |-3---------------|-----------------|-----------------|-----------------|
    |
    |-3-------3---3-3-|-2-------2---2-2-|-2-------2---2-2-|-2-------2---2-2-|
    |-3-------3---3-3-|-3-------3---3-3-|-3-------3---3-3-|-3-------3---3-3-|
    |-4-------4---4-4-|-2-------2---2-2-|-4-------4---4-4-|-4-------4---4-4-|
    |-5-------5---5-5-|-0-------0---0-0-|-4-------4---4-4-|-4-------4---4-4-|
    |-5-------5---5-5-|-----------------|-2-------2---2-2-|-2-------2---2-2-|
    |-3-------3---3-3-|-----------------|-----------------|-----------------|
    
    
      C                 D                 B                 E
      |                 |                 |                 |
      o                 o                 o                 o
    
    |---3-------------|-----------------|---2-----2-------|---3-----3-------|
    |---5-----5-------|---7-----7-------|---3---3---3---3-|-5-----5---5---5-|
    |-5-----5---5---5-|-7-----7---7---7-|-4---4-------4---|-4---4-------4---|
    |-5---5-------5---|-7---7-------7---|-4---------------|-2---------------|
    |-3---------------|-5---------------|-2---------------|-----------------|
    |-----------------|-----------------|-----------------|-----------------|
    |
    |-3-------3---3-3-|-2-------2---2-2-|-2-------2---2-2-|-3-------3---3-3-|
    |-5-------5---5-5-|-3-------3---3-3-|-3-------3---3-3-|-5-------5---5-5-|
    |-5-------5---5-5-|-2-------2---2-2-|-4-------4---4-4-|-4-------4---4-4-|
    |-5-------5---5-5-|-0-------0---0-0-|-4-------4---4-4-|-2-------2---2-2-|
    |-3-------3---3-3-|-----------------|-2-------2---2-2-|-----------------|
    |-----------------|-----------------|-----------------|-----------------|
    
    
      F                 C                 G
      |                 |                 |                  |
      o                 o                 o                  /
    
    |---5-----5-------|---3-------3-----|---3-(3)--(3)----|-(3)----||
    |-6-----6---6---6-|---5-----5---5---|---3-(3)--(3)----|-(3)----||
    |-5---5-------5---|-5-----5-------5-|---0-(0)--(0)----|-(0)----||
    |-3---------------|-5---5-----------|-0---------------|--------||
    |-----------------|-3---------------|-2---------------|--------||
    |-----------------|-----------------|-3---------------|--------||
    |
    |-5-------5---5-5-|-3-------3---3-3-|---3-(3)--(3)----|-(3)----||
    |-6-------6---6-6-|-5-------5---5-5-|---3-(3)--(3)----|-(3)----||
    |-5-------5---5-5-|-5-------5---5-5-|---0-(0)--(0)----|-(0)----||
    |-3-------3---3-3-|-5-------5---5-5-|-0---------------|--------||
    |-----------------|-3-------3---3-3-|-2---------------|--------||
    |-----------------|-----------------|-3---------------|--------||
    
    
     Bridge
      F                 A                 F       A         G
      |                 |                 |       |         |
      o                 o                 o       o         o
    
    |-----------------|---------0-------|-----------------|-----------------|
    |---------1-------|-------1---1-----|---------------1-|-3-------3-------|
    |-------2---2-----|-----2-------2---|-------2-----2---|---4---4---4---4-|
    |-----3-------3---|---2-----------2-|-----3-----2-----|-----5-------5---|
    |---3-----------3-|-0---------------|---3-----0-------|-----------------|
    |-1---------------|-----------------|-1---------------|-----------------|
    |
    |-1-------1---1---|-0-------0---0---|-1---1-1-0---0-0-|-3---3-3-3---3-3-|
    |-1-------1---1---|-1-------1---1---|-1---1-1-1---1-1-|-3---3-3-3---3-3-|
    |-2-------2---2---|-2-------2---2---|-2---2-2-2---2-2-|-0---0-0-0---0-0-|
    |-3-------3---3---|-2-------2---2---|-3---3-3-2---2-2-|-0---0-0-0---0-0-|
    |-3-------3---3---|-0-------0---0---|-3---3-3-0---0-0-|-2---2-2-2---2-2-|
    |-1-------1---1---|-----------------|-1---1-1---------|-3---3-3-3---3-3-|
    
    
      D                 F          G
      |                 |           |
      o                 o           o
    
    |---------5-------|------------------------|
    |-------6---6-----|---10----------12-------|
    |-----7-------7---|------10----------12----|
    |---7-----------7-|---------10----------12-|
    |-5---------------|-8----------10----------|
    |-----------------|------------------------|
    |
    |-5-------5---5---|-5-----------7----------|
    |-6-------6---6---|-6-----------8----------|
    |-7-------7---7---|-5-----------7----------|
    |-7-------7---7---|-7-----------5----------|
    |-5-------5---5---|-8----------------------|
    |-----------------|------------------------|
    
    
      A                       F
      |                       |
      o                       o
    
    |-----------------------|-----------------|
    |------------10---------|---------1-------|
    |---------------9-------|-------2---2-----|
    |---------10------10----|-----3-------3---|
    |-0----12------------12-|---3-----------3-|
    |---12------------------|-1---------------|
    |
    |-5-----------5----5----|-1-------1---1---|
    |-5-----------5----5----|-1-------1---1---|
    |-5-----------5----5----|-2-------2---2---|
    |-7-----------7----7----|-3-------3---3---|
    |-7-----------7----7----|-3-------3---3---|
    |-5-----------5----5----|-1-------1---1---|
    
    
      A                 F       A         G                 D
      |                 |       |         |                 |
      o                 o       o         o                 o
    
    |---------0-------|-----------------|-----------------|-------1-5-1-----|
    |-------1---1-----|---------------1-|-3-------3-------|-----3-------3---|
    |-----2-------2---|-------2-----2---|---4---4---4---4-|---2-----------2-|
    |---2-----------2-|-----3-----2-----|-----5-------5---|-0---------------|
    |-0---------------|---3-----0-------|-----------------|-----------------|
    |-----------------|-1---------------|-----------------|-----------------|
    |
    |-0-------0---0---|-1---1-1-0---0-0-|-3---3-3-3---3-3-|-5-------5---5---|
    |-1-------1---1---|-1---1-1-1---1-1-|-3---3-3-3---3-3-|-6-------6---6---|
    |-2-------2---2---|-2---2-2-2---2-2-|-0---0-0-0---0-0-|-7-------7---7---|
    |-2-------2---2---|-3---3-3-2---2-2-|-0---0-0-0---0-0-|-7-------7---7---|
    |-0-------0---0---|-3---3-3-0---0-0-|-2---2-2-2---2-2-|-5-------5---5---|
    |-----------------|-1---1-1---------|-3---3-3-3---3-3-|-----------------|
    
    
      F       G         A                              F#
      |       |         |                  |           |
      o       o         o                  /           o
    
    |---5-------7-----|---5-(5)--(5)----|-(5)--------|-----------------|
    |-----6-------8---|---5-(5)--(5)----|-(5)--------|---------2-------|
    |-------5-------7-|---5-(5)--(5)----|-(5)--------|-------3---3-----|
    |-3-------5-------|-7---------------|------------|-----4-------4---|
    |-----------------|-7---------------|------------|---4-----------4-|
    |-----------------|-5---------------|------------|-2---------------|
    |
    |-5-------7-------|---5-(5)--(5)----|-(5)--------|-2-------2---2---|
    |-6-------8-------|---5-(5)--(5)----|-(5)--------|-2-------2---2---|
    |-5-------7-------|---5-(5)--(5)----|-(5)--------|-3-------3---3---|
    |-7-------5-------|-7---------------|------------|-4-------4---4---|
    |-8---------------|-7---------------|------------|-4-------4---4---|
    |-----------------|-5---------------|------------|-2-------2---2---|
    
    
      Bb                F#      Bb        Ab                Eb
      |                 |       |         |                 |
      o                 o       o         o                 o
    
    |---------1-------|-----------------|-----------------|-2-------2-------|
    |-------2---2-----|---------------2-|-4-------4-------|---4---4---4---4-|
    |-----3-------3---|-------3-----3---|---5---5---5---5-|-----3-------3---|
    |---3-----------3-|-----4-----3-----|-----6-------6---|-----------------|
    |-1---------------|---4-----1-------|-----------------|-----------------|
    |-----------------|-2---------------|-----------------|-----------------|
    |
    |-1-------1---1---|-2---2-2-1---1-1-|-4---4-4-4---4-4-|-6-------6---6---|
    |-2-------2---2---|-2---2-2-2---2-2-|-4---4-4-4---4-4-|-7-------7---7---|
    |-3-------3---3---|-3---3-3-3---3-3-|-5---5-5-5---5-5-|-8-------8---8---|
    |-3-------3---3---|-4---4-4-3---3-3-|-6---6-6-6---6-6-|-8-------8---8---|
    |-1-------1---1---|-4---4-4-1---1-1-|-6---6-6-6---6-6-|-6-------6---6---|
    |-----------------|-2---2-2---------|-4---4-4-4---4-4-|-----------------|
    
    
      F#      Ab        Bb                F#                Bb
      |       |         |                 |                 |
      o       o         o                 o                 o
    
    |---6-------8-----|---------6-------|-----------------|---------1-------|
    |-----7-------9---|-------2---6-----|---------2-------|-------2---2-----|
    |-------6-------8-|-----3-------6---|-------3---3-----|-----3-------3---|
    |-4-------6-------|---3-----------8-|-----4-------4---|---3-----------3-|
    |-----------------|-1---------------|---4-----------4-|-1---------------|
    |-----------------|-----------------|-2---------------|-----------------|
    |
    |-6-------8-------|-6-------6---6---|-2-------2---2---|-1-------1---1---|
    |-7-------9-------|-6-------6---6---|-2-------2---2---|-2-------2---2---|
    |-6-------8-------|-6-------6---6---|-3-------3---3---|-3-------3---3---|
    |-8-------6-------|-8-------8---8---|-4-------4---4---|-3-------3---3---|
    |-9---------------|-8-------8---8---|-4-------4---4---|-1-------1---1---|
    |-----------------|-6-------6---6---|-2-------2---2---|-----------------|
    
    
      F#      Bb        Ab                Eb                F#      Ab
      |       |         |                 |                 |       |
      o       o         o                 o                 o       o
    
    |-----------------|-----------------|-2-------2-------|---6-------8-----|
    |---------------2-|-4-------4-------|---4---4---4---4-|-----7-------9---|
    |-------3-----3---|---5---5---5---5-|-----3-------3---|-------6-------8-|
    |-----4-----3-----|-----6-------6---|-----------------|-4-------6-------|
    |---4-----1-------|-----------------|-----------------|-----------------|
    |-2---------------|-----------------|-----------------|-----------------|
    |
    |-2---2-2-1---1-1-|-4---4-4-4---4-4-|-6-------6---6---|-6-------8-------|
    |-2---2-2-2---2-2-|-4---4-4-4---4-4-|-7-------7---7---|-7-------9-------|
    |-3---3-3-3---3-3-|-5---5-5-5---5-5-|-8-------8---8---|-6-------8-------|
    |-4---4-4-3---3-3-|-6---6-6-6---6-6-|-8-------8---8---|-8-------6-------|
    |-4---4-4-1---1-1-|-6---6-6-6---6-6-|-6-------6---6---|-9---------------|
    |-2---2-2---------|-4---4-4-4---4-4-|-----------------|-----------------|
    
    
                                          Outro
                                           
      Bb                                   Eb               F#      Ab
      |                 |                  |                |       |
      o                 /                  o                o       o
    
    |---------6-------|---------6-------||-6--------6-----|---6-------8-----|
    |-------2---6-----|-----------6-----||-7------7---7---|-----7-------9---|
    |-----3-------6---|-------6-----6---||-8----8-------8-|-------6-------8-|
    |---3-----------8-|-----8---------8-||-8--8-----------|-4-------6-------|
    |-1---------------|---8-------------||-6--------------|-----------------|
    |-----------------|-6---------------||----------------|-----------------|
    |
    |-6-------6---6---|-6-------6---6---||-6------6---6---|-6-------8-------|
    |-6-------6---6---|-6-------6---6---||-7------7---7---|-7-------9-------|
    |-6-------6---6---|-6-------6---6---||-8------8---8---|-6-------8-------|
    |-8-------8---8---|-8-------8---8---||-8------8---8---|-8-------6-------|
    |-8-------8---8---|-8-------8---8---||-6------6---6---|-9---------------|
    |-6-------6---6---|-6-------6---6---||----------------|-----------------|
    
    
      C#
      |
      o
    
    |-------4-(4)--(4)----*|
    |-----6---------------*|
    |---6-----------------*|
    |---6-----------------*|
    |-4-------------------*|
    |---------------------*|
    |
    |-------4-(4)--(4)----*|
    |-----6---------------*|
    |---6-----------------*|
    |---6-----------------*|
    |-4-------------------*|
    |---------------------*|
     

    Тональность:

    Нет текста!



    Назад
    Рекомендуем посмотреть другие песни исполнителя «HammerFall»:

    • Комментарии Facebook ()
    • Комментарии ВКонтакте



    Добавить в Избранное Браузера
    Сохранить здесь Очистить


    x

    0


    +
    -

    +
    -

    -

    Авторизация





    Зарегистрироваться

    M

    Дата и время

    • 19:43:46
       

    Социальные ссылки


    Наши приложения

    • Muzbank App Play Market
    • Muzbank Amazon App