MUZBANK



A Most Complete Bank Of Music Information

МУЗЫКАЛЬНО-ИНФОРМАЦИОННЫЙ БАНК

Поиск по сайту







    HHarper Ben • Woman In You (аккорды и текст - chords & lyrics)


    199

    Print

    Видео «Woman In You (Harper Ben)»

    Видео клипы к песне подбираются автоматически сайтом youtube. Возможны некоторые несоответствия клипов песне.

    ↑ Спрятать рекламу ↑



    Download



     
    
    
    Song: The Woman In You
    Artist: Ben Harper
    Album: Burn to Shine
    Tabbed by: Alan, bosstoner737@hotmail.com
    
    The main riff is like this
    
    E|-----2------------------------------------|
    B|-----3-2-2--2-2h3p2-----7------------10-8-|
    G|-----4-2-2--2------2----7----7-7h9p7------|
    D|-----4-2-2--2-----------7-7h9-------9-----|
    A|-2-2-2---------------5/7------------------|
    E|------------------------------------------|
    
    
    The Chords played during the chorus are
    
       B  A  G  A
    E|-2--0--3--0-|
    B|-3--2--3--2-|
    G|-4--2--0--2-|
    D|-4--2--0--2-|
    A|-2--0--2--0-|
    E|-------3----|
    
    
    This part is after the second chorus with dist.
    
    E|-------------------|
    B|-------------------|
    G|-------------------|
    D|-2-2---5-5---5---7-|
    A|-2-2---5-5---5---7-|
    E|-0-0-0-3-3-0-3-0-5-|
    
    Email me at bosstoner737@hotmail.com with any questions or comments
     

    Тональность:

    Нет текста!



    Назад
    Рекомендуем посмотреть другие песни исполнителя «Harper Ben»:

    • Комментарии Facebook ()
    • Комментарии ВКонтакте



    Добавить в Избранное Браузера
    Сохранить здесь Очистить


    x

    0


    +
    -

    +
    -

    -

    Авторизация





    Зарегистрироваться

    M

    Дата и время

    • 01:13:20
       

    Социальные ссылки


    Наши приложения

    • Muzbank App Play Market
    • Muzbank Amazon App