MUZBANK



A Most Complete Bank Of Music Information

МУЗЫКАЛЬНО-ИНФОРМАЦИОННЫЙ БАНК

Поиск по сайту







    HHatebreed • This Is Now (аккорды и текст - chords & lyrics)


    278

    Print

    Видео «This Is Now (Hatebreed)»

    Видео клипы к песне подбираются автоматически сайтом youtube. Возможны некоторые несоответствия клипов песне.

    ↑ Спрятать рекламу ↑



    Download


     
    
    
    Hatebreed
    This is Now
    Rise of Brutality
    Tabbed by: Robert Walden
    Tuning: CGCFAD
    Palm-mute=*
    
    Intro/Chorus
    ---------------------------------------------
    ---------------------------------------------
    ---------------------------------------------
    ---------------------------------------------
    -3-0--3-4-3-0-0--1-3-1-0-0--3-4-3-0-0-0-0-0-0
    -3-0--3-4-3-0-0--1-3-1-0-0--3-4-3-0-0-0-0-0-0
                *          *          * * * * * *
    Verse-hold chords
    --------------
    --------------
    --------------
    -7-----6-----8
    -5-----4-----8
    -------------8
    
    Bridge
    --------------------------------------------
    --------------------------------------------
    --------------------------------------------
    --------------------------------------------
    -0-----0---------0-----0-----0-----0---0----
    -0-000-0-000-000-0-000-0-000-0-000-0-0-0-000
       ***   *** ***   ***   ***   ***   *   ***
    Fill
    ----------
    ----------
    ----------
    ----------
    -7-6-3---6
    -7-6-3-0-6
           *
    Solo
    --------------------------
    --------------------------
    -7--7-7h8-5-----7--7-7h8-4
    --------------------------
    --------------------------
    --------------------------
    
    Outro
    --------
    --------
    --------
    --------
    --------
    -000-000
     *** ***
    
    Thats it, just piece it together. I copied this all down from the music
    video on tv, as soon as i get the cd there will be way more tabs to come.
    IM me at kornfellow91 or leave a correction in the correction box above, enjoy.
     

    Тональность:

    Нет текста!



    Назад
    Рекомендуем посмотреть другие песни исполнителя «Hatebreed»:

    • Комментарии Facebook ()
    • Комментарии ВКонтакте



    Добавить в Избранное Браузера
    Сохранить здесь Очистить


    x

    0


    +
    -

    +
    -

    -

    Авторизация





    Зарегистрироваться

    M

    Дата и время

    • 17:20:44
       

    Социальные ссылки


    Наши приложения

    • Muzbank App Play Market
    • Muzbank Amazon App