MUZBANK



A MOST COMPLETE BANK OF MUSIC INFORMATION

МУЗЫКАЛЬНО-ИНФОРМАЦИОННЫЙ БАНК







    HHed Pe • Swan Dive (аккорды и текст - chords & lyrics)


    205

    Print

    Видео «Swan Dive (Hed Pe)»

    Видео клипы к песне подбираются автоматически сайтом youtube. Возможны некоторые несоответствия клипов песне.

    ↑ Спрятать рекламу ↑






     
    
    
    (hed)P.E.
              **Track 9 Swan Dive
              
              Verse, gtr1 gtr2
              (-5-----------------
              (-5-------------5---
              (---------------5---
              (-------------------
              (-------------------
              (-------------------
              (-------------------
              
              (---5-------------0- (with volume roll)
              (---5-------------0-
              (-------------------
              (-------------------
              (-------------------
              (-------------------
              (-------------------
              
              Pre-chorus, gtr1 gtr2
              (-------------------*--------------*---------
              (-------------------*--------------*---------
              (-------------------*--------------*---------
              (-------------------*-6b7r6b7r6-b7-*---------
              (-11-12---7-7-6-6-6-*--------------*-5-5-5-5-
              (--9-10---5-5-4-4-4-*--------------*-3-3-3-3-
              (-------------------*--------------*-.-.-.-.-
              
              Chorus, gtr1 gtr1
              (------------------------------------
              (------------------------------------
              (------------------------------------
              (------------------------------------
              (------------------------------------
              (------------------------------------
              (-0-9-10--10-6-6b-3-3-3-3-3b-0-0-0-0-
              
              Interlude 1, gtr1 gtr2
              (----------------------------
              (----------------------------
              (----------------------------
              (------4--------3----------3-
              (----------------------------
              (----------------------------
              (-3-0-----0-3-0----0-2-0-3---
              
              Interlude 2, gtr1 gtr2
              (-------------------------------------------------
              (-------------------------------------------------
              (-14-15-14----14-15-14----14-15-14----14-15-14----
              (----------12----------15----------11----------11-
              (-------------------------------------------------
              (-------------------------------------------------
              (-------------------------------------------------
              
              (--------------------------------------------
              (--------------------------------------------
              (--------------------------------------------
              (--7-7-7-7-7/10-10-10-10-10/6-6-6-6-6-6-6-6--
              (--5-5-5-5-5/-8--8--8--8--8/4-4-4-4-4-4-4-4--
              (--------------------------------------------
              (--------------------------------------------
     

    Тональность:

    Это должно быть в ТОП-листе! - Топ-лист композиций



    Назад
    Рекомендуем посмотреть другие песни исполнителя «Hed Pe»:

    • Комменты Fb ()
    • Комменты ВК



    Добавить в Избранное Браузера
    Сохранить здесь Очистить


    x

    0


    +
    -

    +
    -

    -

    Авторизация





    Зарегистрироваться

    M

    Дата и время

    • 23:19:18
       

    Социальные ссылки


    Наши приложения

    • Muzbank App Play Market
    • Muzbank Amazon App