MUZBANK



A Most Complete Bank Of Music Information

МУЗЫКАЛЬНО-ИНФОРМАЦИОННЫЙ БАНК

Поиск по сайту







    HHelloween • Never Be A Star (аккорды и текст - chords & lyrics)


    233

    Print

    Видео «Never Be A Star (Helloween)»

    Видео клипы к песне подбираются автоматически сайтом youtube. Возможны некоторые несоответствия клипов песне.

    ↑ Спрятать рекламу ↑



    Download


     
    
    
    HELLOWEEN
    NEVER BE A STAR
    from the Rabbit Dont Come Easy record
    
    Note: Hello, Helloween maniacs! I know this is the worst song on the record
     but playing it is pretty cool !!! - try yourself...
    
    Intro:
    e ---------------------|------------------------|
    B------------7----9----|------------------------|
    G-6h8---8--------------|-6h8---8----8-9-6-8-----|
    D-6---6----6----6----6-|-----6----6-------------|
    A----------------------|------------------------|
    E----------------------|------------------------|
    
    e----------------------|------------------------|repeat 
    B------------7----9----|------------------------|
    G-6h8---8--------------|-6----------------------|
    D----------------------|-------9-----8-----6----|
    A-7---7----7---7-----7-|-----7-----7-----7------|
    E----------------------|------------------------|
    
    On the second time distorted guitar enters:
    e----------|---------|---------|---------|
    B----------|---------|---------|---------|
    G----------|---------|---------|---------|
    D-6--------|-6-------|-2-------|-4-------|
    A-6--------|-6-------|-2-------|-4-------|
    E-4--------|-4-------|-0-------|-2-------|
    
    Verse:                                  3x
    e------------------|---------------------|
    B------------------|---------------------|
    G------------------|---------------------|
    D-6-6-6-6---6------|-4-4-4--4---4--------|
    A-4-4-4-4---4------|-2-2-2--2---2-2~~----|
    E------------------|---------------------|
      PM---------|       PM----------| 
    
    last time:
    e------------------|-------------------------|
    B------------------|-------------------------|
    G------------------|-------------------------|
    D-6-6-6-6---6------|-4-4-4-4-4-4-4-4-4-4-4-4-|
    A-4-4-4-4---4------|-2-2-2-2-2-2-2-2-2-2-2-2-|
    E------------------|-------------------------|
      PM---------|       PM---------------------|
    
    Chorus:
    e---------|----------|----------|----------|repeat
    B---------|----------|----------|----------|
    G---------|----------|----------|----------|
    D-6-------|-6--------|-2--------|-4--------|
    A-6-------|-6--------|-2--------|-4--------|
    E-4-------|-4--------|-0--------|-2--------|
    
    Before the solo:       4x  
    e-----------|-----------|
    B-----------|-----------|
    G-6---------|-----------|
    D-6---------|-4---------|
    A-4---------|-4---------| 
    E-----------|-2---------|
    
    Solo backing:     4x 
    e--------|---------|
    B--------|---------|
    G--------|---------|
    D-2------|-4-------|
    A-2------|-4-------|
    E-0------|-2-------|
    
    Guitar solo:
    e-14b(16)-14b(16)-14b(16)-14b(16)-------------|--------14-16-18-|
    B---------------------------------12-14b(16)--|-14~~------------|
    G---------------------------------------------|-----------------|
    D---------------------------------------------|-----------------|
    A---------------------------------------------|-----------------|
    E---------------------------------------------|-----------------|
    
    e-18b(19)r(18)b(19)r(18)b(19)r(18)-------------|--------------------|
    B----------------------------------12-14b(16)--|-14~~---9-11-12-14-|
    G----------------------------------------------|--------------------|
    D----------------------------------------------|--------------------|
    A----------------------------------------------|--------------------|
    E----------------------------------------------|--------------------|
    
    e----------------------------|----------------------|
    B-12p11------------14b(16)---|-14~~-----9-11-12-14-|
    G-------13~~----13-----------|----------------------|
    D----------------------------|----------------------|
    A----------------------------|----------------------|
    E----------------------------|----------------------|
    
    e----------------------------|------14b(16)-14~~-21b(22)-|
    B-12p11------------14b(16)---|-14~~----------------------|
    G-------13~~----13-----------|---------------------------|
    D----------------------------|---------------------------|
    A----------------------------|---------------------------|
    E----------------------------|---------------------------|
    
    e-21~~~b(22)r(21)b(22)r(21)b(22)r(21)b(22)-|-(22)r(21)~~~~----|
    B------------------------------------------|------------------|
    G------------------------------------------|------------------|
    D------------------------------------------|------------------|
    A------------------------------------------|------------------|
    E------------------------------------------|------------------|
    
    Thats all folks...for comments, suggestions and other crap mail to:
    loveandtrust@pobox.sk
    You are who you are !!!
     

    Тональность:

    Нет текста!



    Назад
    Рекомендуем посмотреть другие песни исполнителя «Helloween»:

    • Комментарии Facebook ()
    • Комментарии ВКонтакте



    Добавить в Избранное Браузера
    Сохранить здесь Очистить


    x

    0


    +
    -

    +
    -

    -

    Авторизация





    Зарегистрироваться

    M

    Дата и время

    • 11:34:26
       

    Социальные ссылки


    Наши приложения

    • Muzbank App Play Market
    • Muzbank Amazon App