MUZBANK



A Most Complete Bank Of Music Information

МУЗЫКАЛЬНО-ИНФОРМАЦИОННЫЙ БАНК

Поиск по сайту







    HHelmet • Born Annoying 1989 (аккорды и текст - chords & lyrics)


    231

    Print

    Видео «Born Annoying 1989 (Helmet)»

    Видео клипы к песне подбираются автоматически сайтом youtube. Возможны некоторые несоответствия клипов песне.

    ↑ Спрятать рекламу ↑



    Download


     
    Standard Tuning – E, A, D, G, B, E
    
    Intro/Verse
    
    |--------------------------------|----------------|
    |--------------------------------|------------0-0-|
    |--------------------------------|------------0-0-|
    |-7-/5-7-/5-/8-8--7-/5-7-/5-/8-8-|-7-/5-7-/5-/8-8-|
    |-7-/5-7-/5-/8-8--7-/5-7-/5-/8-8-|-7-/5-7-/5-/8-8-|
    |-5-/3-5-/3-/6-6--5-/3-5-/3-/6-6-|-5-/3-5-/3-/6-6-|
      Play x 14                      | Play x 8
    
    |--------------------------------|----------------|-----------------|
    |--------------------------------|------------0-0-|-----------------|
    |--------------------------------|------------0-0-|-----------------|
    |-7-/5-7-/5-/8-8--7-/5-7-/5-/8-8-|-7-/5-7-/5-/8-8-|-8-8-8-8-8-8-8-8-|
    |-7-/5-7-/5-/8-8--7-/5-7-/5-/8-8-|-7-/5-7-/5-/8-8-|-8-8-8-8-8-8-8-8-|
    |-5-/3-5-/3-/6-6--5-/3-5-/3-/6-6-|-5-/3-5-/3-/6-6-|-6-6-6-6-6-6-6-6-|
      Play x 4                       | Play x 8       |
    
    Chorus
    
    |---------------------------------------|
    |---------------------------------------|
    |---------------------------------------|
    |-4-4-x-x---4-4-x-x---4-4-x-x---4-4-5-2-|
    |-4-4-x-x---4-4-x-x---4-4-x-x---4-4-5-2-|
    |-2-2-x-x-0-2-2-x-x-0-2-2-x-x-0-2-2-3-0-|
      Play x 4
    
    |--------------------------------|----------------|
    |--------------------------------|------------0-0-|
    |--------------------------------|------------0-0-|
    |-7-/5-7-/5-/8-8--7-/5-7-/5-/8-8-|-7-/5-7-/5-/8-8-|
    |-7-/5-7-/5-/8-8--7-/5-7-/5-/8-8-|-7-/5-7-/5-/8-8-|
    |-5-/3-5-/3-/6-6--5-/3-5-/3-/6-6-|-5-/3-5-/3-/6-6-|
      Play x 8                       | Play x 8
    
    |--------------------------------|----------------|-----------------|
    |--------------------------------|------------0-0-|-----------------|
    |--------------------------------|------------0-0-|-----------------|
    |-7-/5-7-/5-/8-8--7-/5-7-/5-/8-8-|-7-/5-7-/5-/8-8-|-8-8-8-8-8-8-8-8-|
    |-7-/5-7-/5-/8-8--7-/5-7-/5-/8-8-|-7-/5-7-/5-/8-8-|-8-8-8-8-8-8-8-8-|
    |-5-/3-5-/3-/6-6--5-/3-5-/3-/6-6-|-5-/3-5-/3-/6-6-|-6-6-6-6-6-6-6-6-|
      Play x 4                       | Play x 8       |
    
    Solo
    
    |---------------------------------------|
    |---------------------------------------|
    |---------------------------------------|
    |-4-4-x-x---4-4-x-x---4-4-x-x---4-4-5-2-|
    |-4-4-x-x---4-4-x-x---4-4-x-x---4-4-5-2-|
    |-2-2-x-x-0-2-2-x-x-0-2-2-x-x-0-2-2-3-0-|
      Play x 8
    
    Outro
    
    |---------|-----------------|
    |---------|-----------------|
    |---------|-GUITARS-GO-INTO-| 
    |-4-4-5-2-|-----------------|
    |-4-4-5-2-|-A-WALL-OF-NOISE-|
    |-2-2-3-0-|-----------------|
     Play x 28|
     

    Тональность:

    Нет текста!



    Назад
    Рекомендуем посмотреть другие песни исполнителя «Helmet»:

    • Комментарии Facebook ()
    • Комментарии ВКонтакте



    Добавить в Избранное Браузера
    Сохранить здесь Очистить


    x

    0


    +
    -

    +
    -

    -

    Авторизация





    Зарегистрироваться

    M

    Дата и время

    • 01:02:26
       

    Социальные ссылки


    Наши приложения

    • Muzbank App Play Market
    • Muzbank Amazon App