MUZBANK



A Most Complete Bank Of Music Information

МУЗЫКАЛЬНО-ИНФОРМАЦИОННЫЙ БАНК

Поиск по сайту







    HHelmet • Diet Aftertaste (аккорды и текст - chords & lyrics)


    243

    Print

    Видео «Diet Aftertaste (Helmet)»

    Видео клипы к песне подбираются автоматически сайтом youtube. Возможны некоторые несоответствия клипов песне.

    ↑ Спрятать рекламу ↑



    Download


     
    
    
    -----------------------------------------------------------------------------
                          DIET AFTERTASTE - Helmet
    -----------------------------------------------------------------------------
    
    
    
    
    Drop D Tuning - D, A, D, G, B, E
    
    Intro
    
    |------------6--6-|-----------------------|
    |------------6--6-|-----------------------|
    |------------5--5-|-----------------------|
    |-3--0--12-0h3--3-|-3--0--12-0h3--3--10~~-|
    |-3--0--12-0h3--3-|-3--0--12-0h3--3--10~~-|
    |-3--0--12-0h3--3-|-3--0--12-0h3--3--10~~-|
    
    Verse
    
    |--------------------------------------------------------------|
    |--------------------------------------------------------------|
    |--------------------------------------------------------------|
    |-3--0--12-0h3--3-3-3-3-3-3-3-3-8-8-8-8-8-8-8-8-6-6-6-6-6-6-5/-|
    |-3--0--12-0h3--3-3-3-3-3-3-3-3-8-8-8-8-8-8-8-8-6-6-6-6-6-6-5/-|
    |-3--0--12-0h3--3-3-3-3-3-3-3-3-8-8-8-8-8-8-8-8-6-6-6-6-6-6-5/-|
    
    |-----------------|-----------------------------------------------|
    |-----------------|-----------------------------------------------|
    |-----------------|-----------------------------------------------|
    |-3--0--12-0h3--3-|-3--0--12-0h3--3-3-3-3-3-3-3-3-8-8-8-8-8-8-8-8-|
    |-3--0--12-0h3--3-|-3--0--12-0h3--3-3-3-3-3-3-3-3-8-8-8-8-8-8-8-8-|
    |-3--0--12-0h3--3-|-3--0--12-0h3--3-3-3-3-3-3-3-3-8-8-8-8-8-8-8-8-|
      Play x 6        |
    
    |----------------|
    |----------------|
    |----------------|
    |-6-6-6-6-6-6-5/-|
    |-6-6-6-6-6-6-5/-|
    |-6-6-6-6-6-6-5/-|
    
    Chorus
    
    |-------------------------------|
    |-------------------------------|
    |-------------------------------|
    |-0--3--0--0--12--0-0-3-3--1--0-|
    |-0--3--0--0--12--0-0-3-3--1--0-|
    |-0--3--0--0--12--0-0-3-3--1--0-|
                                                        
    |-----------------|-----------------------|-----------------|
    |-----------------|-----------------------|-----------------|
    |-----------------|-----------------------|-----------------|
    |-3--0--12-0h3--3-|-3--0--12-0h3--3--10~~-|-3--0--12-0h3--3-|
    |-3--0--12-0h3--3-|-3--0--12-0h3--3--10~~-|-3--0--12-0h3--3-|
    |-3--0--12-0h3--3-|-3--0--12-0h3--3--10~~-|-3--0--12-0h3--3-|
                                              | Play x 3
    
    |-----------------------|-----------------------------------------|
    |-----------------------|-----------------------------------------|
    |-----------------------|-----------------------------------------|
    |-3--0--12-0h3--3--10~~-|-3--0--12-0h3--3-3-3-3-3-3-3-3-8-8-8-8-8-|
    |-3--0--12-0h3--3--10~~-|-3--0--12-0h3--3-3-3-3-3-3-3-3-8-8-8-8-8-|
    |-3--0--12-0h3--3--10~~-|-3--0--12-0h3--3-3-3-3-3-3-3-3-8-8-8-8-8-|
    
    |----------------------|
    |----------------------|
    |----------------------|
    |-8-8-8-6-6-6-6-6-6-5/-|
    |-8-8-8-6-6-6-6-6-6-5/-|
    |-8-8-8-6-6-6-6-6-6-5/-|
    
    Middle 8
                                  1,2,3,4,5,6,7|                        8|
    |----------------------|-------------------|-------------------------|
    |----------------------|-------------------|-------------------------|
    |----------------------|-------------------|-------------------------|
    |-0-10-12--12-12-10-10-|-3-3-3-5-5-5-5-3-0-|-3-3-3-3-3-3-3-3-3-3-3-3-|
    |-0-10-12--12-12-10-10-|-3-3-3-5-5-5-5-3-0-|-3-3-3-3-3-3-3-3-3-3-3-3-|
    |-0-10-12--12-12-10-10-|-3-3-3-5-5-5-5-3-0-|-3-3-3-3-3-3-3-3-3-3-3-3-|
    
    Solo
    
    |---------------------------------|---------------------------------------|
    |---------------------------------|---------------------------------------|
    |---------------------------------|---------------------------------------|
    |-0-3-5-5-5-3-3-5---3-3-5-5-3-5-0-|-7-7-7-7-7-7-7-7---3-3-3-3-3-3-3-3-3-3-|
    |-0-3-5-5-5-3-3-5---3-3-5-5-3-5-0-|-7-7-7-7-7-7-7-7---3-3-3-3-3-3-3-3-3-3-|
    |-0-3-5-5-5-3-3-5---3-3-5-5-3-5-0-|-7-7-7-7-7-7-7-7---3-3-3-3-3-3-3-3-3-3-|
      Play x 8                        | Play x 2
    
    Outro
                                  1,2,3,4,5,6,7|                        8|
    |----------------------|-------------------|-------------------------|
    |----------------------|-------------------|-------------------------|
    |----------------------|-------------------|-------------------------|
    |-0-10-12--12-12-10-10-|-3-3-3-5-5-5-5-3-0-|-3-3-3-3-3-3-3-3-3-3-3-3-|
    |-0-10-12--12-12-10-10-|-3-3-3-5-5-5-5-3-0-|-3-3-3-3-3-3-3-3-3-3-3-3-|
    |-0-10-12--12-12-10-10-|-3-3-3-5-5-5-5-3-0-|-3-3-3-3-3-3-3-3-3-3-3-3-|
    
    
     

    Тональность:

    Нет текста!



    Назад
    Рекомендуем посмотреть другие песни исполнителя «Helmet»:

    • Комментарии Facebook ()
    • Комментарии ВКонтакте



    Добавить в Избранное Браузера
    Сохранить здесь Очистить


    x

    0


    +
    -

    +
    -

    -

    Авторизация





    Зарегистрироваться

    M

    Дата и время

    • 04:57:00
       

    Социальные ссылки


    Наши приложения

    • Muzbank App Play Market
    • Muzbank Amazon App