MUZBANK



A Most Complete Bank Of Music Information

МУЗЫКАЛЬНО-ИНФОРМАЦИОННЫЙ БАНК

Поиск по сайту







    HHelmet • I Know (аккорды и текст - chords & lyrics)


    247

    Print

    Видео «I Know (Helmet)»

    Видео клипы к песне подбираются автоматически сайтом youtube. Возможны некоторые несоответствия клипов песне.

    ↑ Спрятать рекламу ↑



    Download


     
    
    
    -----------------------------------------------------------------------------
                                I KNOW - Helmet
    -----------------------------------------------------------------------------
    
    
    
    
    Drop C# Tuning - C#, G#, C#, F#, A#, D#
    
    Intro
    
    |-------|-------------------------------------------------------------|
    |-DRUMS-|-----5-5-5-5-------0~~-------5~~---------0~~-------------5~~-|
    |-------|-----5-5-5-5-------0~~-------5~~---------0~~-------------5~~-|
    |-------|-3~~-5-5-5-5---0~~-0~~---3~~-5~~---4-3-0-0~~---2h3-3-3-3-5~~-|
    |-ONLY--|-3~~-----------0~~-------3~~-------4-3-0-------2h3-3-3-3-----|
    |-------|-3~~-----------0~~-------3~~-------4-3-0-------2h3-3-3-3-----|
    
    |----------------------------|------------------|---------|------------|
    |--------------0~~-----------|------------------|---------|------------|
    |--------------0~~-----------|------------------|---------|------------|
    |-5-4-3-0--0~~-0~~---1~~---0-||||
    |-5-4-3-0--0~~-------1~~---0-||||
    |-5-4-3-0--0~~-------1~~---0-||||
                                 | Play x 10        |         | Play x 3
    
    Verse
    
    |---------|-----------|-------|-------------------|
    |---------|-----------|-------|-------------------|
    |---------|-----------|-------|-------------------|
    |-4-3-0-0-|-0-4-3-0-0-|-0-0-0-|-0-4-3-0-0-2-3-2-0-|
    |-4-3-0-0-|-0-4-3-0-0-|-0-0-0-|-0-4-3-0-0-2-3-2-0-|
    |-4-3-0-0-|-0-4-3-0-0-|-0-0-0-|-0-4-3-0-0-2-3-2-0-|
              | Play x 16 |
    
    Chorus
    
    |-------------------------------------------------|
    |-----5~~-------0~~-------5~~-------------0~~-----|
    |-----5~~-------0~~-------5~~-------------0~~-----|
    |-3~~-5~~---0~~-0~~---3~~-5~~---/10-9-0~~-0~~---1-|
    |-3~~-------0~~-------3~~-------/10-9-0~~-------1-|
    |-3~~-------0~~-------3~~-------/10-9-0~~-------1-|
    
    |---------|-----------|---------|-----------|----------------------|
    |---------|-----------|---------|-----------|----------------------|
    |---------|-----------|---------|-----------|----------------------|
    |-4-3-0-0-|-0-4-3-0-0-|-5-3-0-0-|-0-4-3-0-0-|-12-10-0-10-0-0-10-12-|
    |-4-3-0-0-|-0-4-3-0-0-|-5-3-0-0-|-0-4-3-0-0-|-12-10-0-10-0-0-10-12-|
    |-4-3-0-0-|-0-4-3-0-0-|-5-3-0-0-|-0-4-3-0-0-|-12-10-0-10-0-0-10-12-|
              | Play x 6  |         | Play x 8  |
    
    |-------------------------------------------------|
    |-----5~~-------0~~-------5~~-------------0~~-----|
    |-----5~~-------0~~-------5~~-------------0~~-----|
    |-3~~-5~~---0~~-0~~---3~~-5~~---/10-9-0~~-0~~---1-|
    |-3~~-------0~~-------3~~-------/10-9-0~~-------1-|
    |-3~~-------0~~-------3~~-------/10-9-0~~-------1-|
    
    Middle 8
    
    |-------------------------------------------|
    |-------------------------------------------|
    |-------------------------------------------|
    |-4-3-0-0-5-3-0-0-2-3-0-3-0-0-4-0-4-0-0-6-0-|
    |-4-3-0-0-5-3-0-0-2-3-0-3-0-0-4-0-4-0-0-6-0-|
    |-4-3-0-0-5-3-0-0-2-3-0-3-0-0-4-0-4-0-0-6-0-|
      Play x 8
    
    Outro
    
    |-4-4-4-4-4-/6-6-6-6-6-3-3-3-3-3-|---------------|-4-4-4-4-4-/6-6-6-6-6-|
    |-4-4-4-4-4-/6-6-6-6-6-3-3-3-3-3-|---------------|-4-4-4-4-4-/6-6-6-6-6-|
    |-3-3-3-3-3-/5-5-5-5-5-2-2-2-2-2-|---------------|-3-3-3-3-3-/5-5-5-5-5-|
    |-1-1-1-1-1-/3-3-3-3-3-0-0-0-0-0-|-3-0-0-3-0-0-0-|-1-1-1-1-1-/3-3-3-3-3-|
    |-1-1-1-1-1-/3-3-3-3-3-0-0-0-0-0-|-3-0-0-3-0-0-0-|-1-1-1-1-1-/3-3-3-3-3-|
    |-1-1-1-1-1-/3-3-3-3-3-0-0-0-0-0-|-3-0-0-3-0-0-0-|-1-1-1-1-1-/3-3-3-3-3-|
      Play x 3                       |
    
    |------------------------------------------|
    |------------------------------------------|
    |------------------------------------------|
    |-4-3-0-0-5-3-0-0-2-3-0-3-0-0-4-0-4-0-0-6-|
    |-4-3-0-0-5-3-0-0-2-3-0-3-0-0-4-0-4-0-0-6-|
    |-4-3-0-0-5-3-0-0-2-3-0-3-0-0-4-0-4-0-0-6-|
    
    
     

    Тональность:

    Нет текста!



    Назад
    Рекомендуем посмотреть другие песни исполнителя «Helmet»:

    • Комментарии Facebook ()
    • Комментарии ВКонтакте



    Добавить в Избранное Браузера
    Сохранить здесь Очистить


    x

    0


    +
    -

    +
    -

    -

    Авторизация





    Зарегистрироваться

    M

    Дата и время

    • 12:07:43
       

    Социальные ссылки


    Наши приложения

    • Muzbank App Play Market
    • Muzbank Amazon App