MUZBANK



A Most Complete Bank Of Music Information

МУЗЫКАЛЬНО-ИНФОРМАЦИОННЫЙ БАНК

Поиск по сайту







    HHelmet • Just Another Victim (аккорды и текст - chords & lyrics)


    200

    Print

    Видео «Just Another Victim (Helmet)»

    Видео клипы к песне подбираются автоматически сайтом youtube. Возможны некоторые несоответствия клипов песне.

    ↑ Спрятать рекламу ↑



    Download


     
    
    
    -----------------------------------------------------------------------------
                        JUST ANOTHER VICTIM - Helmet
    -----------------------------------------------------------------------------
    
    
    email - c.norman83@ntlworld.com
    
    Drop D Tuning - D, A, D, G, B, E 
    
    Intro 
    
    |---------------| 
    |---------------| 
    |---------------| 
    |-1p0-3-0-0-1p0-| 
    |-1p0-3-0-0-1p0-| 
    |-1p0-3-0-0-1p0-| 
      Play x 10 
    
    Verse 
    
    |---------------| 
    |---------------| 
    |---------------| 
    |-1p0-3-0-0-1p0-| 
    |-1p0-3-0-0-1p0-| 
    |-1p0-3-0-0-1p0-| 
      Play x 8 
    
    Chorus 
    
    |------------------------| 
    |------------------------| 
    |------------------------| 
    |-0-0-0-/10-12-0-0-0-0-3-| 
    |-0-0-0-/10-12-0-0-0-0-3-| 
    |-0-0-0-/10-12-0-0-0-0-3-| 
    Play x 6 
    
    |---------------| 
    |---------------| 
    |---------------| 
    |-1p0-3-0-0-1p0-| 
    |-1p0-3-0-0-1p0-| 
    |-1p0-3-0-0-1p0-| 
      Play x 12 
    
    |------------------------|------------------| 
    |------------------------|------------------| 
    |------------------------|------------------| 
    |-0-0-0-/10-12-0-0-0-0-3-|-0--3--2--5--0--6-| 
    |-0-0-0-/10-12-0-0-0-0-3-|-0--3--2--5--0--6-| 
    |-0-0-0-/10-12-0-0-0-0-3-|-0--3--2--5--0--6-| 
      Play x 6               | 
    
    |---------------| 
    |---------------| 
    |---------------| 
    |-1p0-3-0-0-1p0-| 
    |-1p0-3-0-0-1p0-| 
    |-1p0-3-0-0-1p0-| 
      Play x 13 
    
    |------------------------|---------------------| 
    |------------------------|-----------------0~~-| 
    |------------------------|-----------------0~~-| 
    |-0-0-0-/10-12-0-0-0-0-3-|-0-2-3-3-3-3-3-3-5~~-| 
    |-0-0-0-/10-12-0-0-0-0-3-|-0-2-3-3-3-3-3-3-3~~-| 
    |-0-0-0-/10-12-0-0-0-0-3-|-0-2-3-3-3-3-3-3-3~~-| 
      Play x 8               | 
     
    Outro 
    
    |---------------------------| 
    |---------------------------| 
    |---------------------------| 
    |-1-p-0---3---0---0---1-p-0-| 
    |-1-p-0---3---0---0---1-p-0-| 
    |-1-p-0---3---0---0---1-p-0-| 
      Play x 40
    
    And Thats it.
    
    Contact me if you have any comments about this tab or any others that I have done.
     

    Тональность:

    Нет текста!



    Назад
    Рекомендуем посмотреть другие песни исполнителя «Helmet»:

    • Комментарии Facebook ()
    • Комментарии ВКонтакте



    Добавить в Избранное Браузера
    Сохранить здесь Очистить


    x

    0


    +
    -

    +
    -

    -

    Авторизация





    Зарегистрироваться

    M

    Дата и время

    • 06:16:25
       

    Социальные ссылки


    Наши приложения

    • Muzbank App Play Market
    • Muzbank Amazon App