MUZBANK



A Most Complete Bank Of Music Information

МУЗЫКАЛЬНО-ИНФОРМАЦИОННЫЙ БАНК

Поиск по сайту







    HHelmet • Rollo (аккорды и текст - chords & lyrics)


    235

    Print

    Видео «Rollo (Helmet)»

    Видео клипы к песне подбираются автоматически сайтом youtube. Возможны некоторые несоответствия клипов песне.

    ↑ Спрятать рекламу ↑



    Download


     
    
    
    -----------------------------------------------------------------------------
                                ROLLO - Helmet
    -----------------------------------------------------------------------------
    
    
    
    
    Drop D Tuning - D, A, D, G, B, E 
     
    Intro 
    
    |-------------------------------------| 
    |-------------------------------------| 
    |-------------------------------------| 
    |-0-0-10-10-10-0---0-0-10-10-10-0-6-0-| 
    |-0-0-10-10-10-0---0-0-10-10-10-0-6-0-| 
    |-0-0-10-10-10-0---0-0-10-10-10-0-6-0-| 
      Play x 8 
    
    Verse 
    
    |----------------------------------------| 
    |----------------------------------------| 
    |----------------------------------------| 
    |-0-0-0-3-3-3-5---0---0-0-3-3-3-5-3^-5-0-| 
    |-0-0-0-3-3-3-5---0---0-0-3-3-3-5-3^-5-0-| 
    |-0-0-0-3-3-3-5---0---0-0-3-3-3-5-3^-5-0-| 
      Play x 6 
    
    |-------------------------------------| 
    |-------------------------------------| 
    |-------------------------------------| 
    |-0-0-10-10-10-0---0-0-10-10-10-0-6-0-| 
    |-0-0-10-10-10-0---0-0-10-10-10-0-6-0-| 
    |-0-0-10-10-10-0---0-0-10-10-10-0-6-0-| 
      Play x 4 
    
    |----------------------------------------| 
    |----------------------------------------| 
    |----------------------------------------| 
    |-0-0-0-3-3-3-5---0---0-0-3-3-3-5-3^-5-0-| 
    |-0-0-0-3-3-3-5---0---0-0-3-3-3-5-3^-5-0-| 
    |-0-0-0-3-3-3-5---0---0-0-3-3-3-5-3^-5-0-| 
      Play x 4 
    
    Middle 8 
    
    |-------------------------------|-15-15-15-15-15-15/13-13-13-13-13-13-| 
    |-------------------------------|-x--x--x--x--x--x--x--x--x--x--x--x--| 
    |-10-10-10-10-10-10/5-5-5-5-5-5-|-12-12-12-12-12-12/10-10-10-10-10-10-| 
    |-x--x--x--x--x--x-/x-x-x-x-x-x-|-//-//-//-//-//-//-//-//-//-//-//-//-| 
    |-8--8--8--8--8--8-/3-3-3-3-3-3-|-------------------------------------| 
    |-/--/--/--/--/--/--/-/-/-/-/-/-|-------------------------------------| 
      Play x 2                      | Play x 2 
    
    |-------------------| 
    |-------------------|
    |-------------------|
    |-3p0-3p0-0-0-0-0-0-|
    |-3p0-3p0-0-0-0-0-0-|
    |-3p0-3p0-0-0-0-0-0-|
      Play x 16 
      PM...............  
    
    |-----------------------------------------------------------------------| 
    |-----------------------------------------------------------------------| 
    |-----------------------------------------------------------------------| 
    |-3p0-3p0-0-0-0-0-0-3p0-3p0-0-0-0-0-0-3p0-3p0-0-0-0-0-0-3-3-5-5-6-5-6-3-| 
    |-3p0-3p0-0-0-0-0-0-3p0-3p0-0-0-0-0-0-3p0-3p0-0-0-0-0-0-3-3-5-5-6-5-6-3-|
    |-3p0-3p0-0-0-0-0-0-3p0-3p0-0-0-0-0-0-3p0-3p0-0-0-0-0-0-3-3-5-5-6-5-6-3-|
      Play x 4
    
    Outro 
    
    |-------------------------------|-15-15-15-15-15-15/13-13-13-13-13-13-| 
    |-------------------------------|-x--x--x--x--x--x--x--x--x--x--x--x--| 
    |-10-10-10-10-10-10-5-5-5-5-5-5-|-12-12-12-12-12-12/10-10-10-10-10-10-| 
    |-x--x--x--x--x--x--x-x-x-x-x-x-|-//-//-//-//-//-//-//-//-//-//-//-//-| 
    |-8--8--8--8--8--8-/3-3-3-3-3-3-|-------------------------------------| 
    |-/--/--/--/--/--/--/-/-/-/-/-/-|-------------------------------------| 
    Play x 2 | 
    
    |-17-17-17-17-17-17-^---^~~-----| 
    |-x--x--x--x--x--x----------0~~-| 
    |-14-14-14-14-14-14---------0~~-| 
    |-//-//-//-//-//-//---------10~-| 
    |---------------------------10~-| 
    |---------------------------10~-|
    
    And Thats it.
     

    Тональность:

    Нет текста!



    Назад
    Рекомендуем посмотреть другие песни исполнителя «Helmet»:

    • Комментарии Facebook ()
    • Комментарии ВКонтакте



    Добавить в Избранное Браузера
    Сохранить здесь Очистить


    x

    0


    +
    -

    +
    -

    -

    Авторизация





    Зарегистрироваться

    M

    Дата и время

    • 07:33:34
       

    Социальные ссылки


    Наши приложения

    • Muzbank App Play Market
    • Muzbank Amazon App