MUZBANK



A Most Complete Bank Of Music Information

МУЗЫКАЛЬНО-ИНФОРМАЦИОННЫЙ БАНК

Поиск по сайту







    HHelmet • Your Head (аккорды и текст - chords & lyrics)


    283

    Print

    Видео «Your Head (Helmet)»

    Видео клипы к песне подбираются автоматически сайтом youtube. Возможны некоторые несоответствия клипов песне.

    ↑ Спрятать рекламу ↑



    Download


     
    
    
    -----------------------------------------------------------------------------
                               YOUR HEAD - Helmet
    -----------------------------------------------------------------------------
    
    
    
    
    Drop D Tuning - D, A, D, G, B, E
    
    Intro
    
    |---------------------------|-----|
    |---------------------------|-0~~-|
    |---------------------------|-0~~-|
    |---|-3~~-|
    |---|-3~~-|
    |---|-3~~-|
      Play x 8                  |
    
    Verse
    
    |-----------------|
    |-----------------|
    |-----------------|
    |-0---8-8-8-8-8-8-|
    |-0---8-8-8-8-8-8-|
    |-0---8-8-8-8-8-8-|
      Play x 12
    
    Chorus
    
    |--------------------------------------------|
    |--------------------------------------------|
    |--------------------------------------------|
    |-12-12-12-12-12-12-12-12-14-1010101010101010|
    |-10-10-10-10-10-10-10-10-12-8-8-8-8-8-8-8-8-|
    |-10-10-10-10-10-10-10-10-12-8-8-8-8-8-8-8-8-|
      Play x 2
    
    |-----------------|
    |-----------------|
    |-----------------|
    |-0---8-8-8-8-8-8-|
    |-0---8-8-8-8-8-8-|
    |-0---8-8-8-8-8-8-|
      Play x 12
    
    |--------------------------------------------|
    |--------------------------------------------|
    |--------------------------------------------|
    |-12-12-12-12-12-12-12-12-14-1010101010101010|
    |-10-10-10-10-10-10-10-10-12-8-8-8-8-8-8-8-8-|
    |-10-10-10-10-10-10-10-10-12-8-8-8-8-8-8-8-8-|
      Play x 2
    
    Middle 8
    
    |-----------------|-----------------|------------------------|
    |-----------------|-----------------|-0~~---11~~---1~~---2~~-|
    |-----------------|-----------------|-0~~---11~~---0~~---2~~-|
    |-0-0-0-2h3-2-2-5-|-0---8-8-8-8-8-8-|-0~~---11~~---0~~---2~~-|
    |-0-0-0-2h3-2-2-5-|-0---8-8-8-8-8-8-|------------------------|
    |-0-0-0-2h3-2-2-5-|-0---8-8-8-8-8-8-|------------------------|
      Play x 8        | Play x 4        |
    
    |--------------------------------------------|
    |--------------------------------------------|
    |--------------------------------------------|
    |-12-12-12-12-12-12-12-12-14-1010101010101010|
    |-10-10-10-10-10-10-10-10-12-8-8-8-8-8-8-8-8-|
    |-10-10-10-10-10-10-10-10-12-8-8-8-8-8-8-8-8-|
      Play x 2
    
    Outro
    
    |-----------------|-----|
    |-----------------|-0~~-|
    |-----------------|-0~~-|
    |-0-0-0-2h3-2-2-5-|-5~~-|
    |-0-0-0-2h3-2-2-5-|-5~~-|
    |-0-0-0-2h3-2-2-5-|-5~~-|
      Play x 12       |
    
    
     

    Тональность:

    Нет текста!



    Назад
    Рекомендуем посмотреть другие песни исполнителя «Helmet»:

    • Комментарии Facebook ()
    • Комментарии ВКонтакте



    Добавить в Избранное Браузера
    Сохранить здесь Очистить


    x

    0


    +
    -

    +
    -

    -

    Авторизация





    Зарегистрироваться

    M

    Дата и время

    • 09:06:08
       

    Социальные ссылки


    Наши приложения

    • Muzbank App Play Market
    • Muzbank Amazon App