MUZBANK



A Most Complete Bank Of Music Information

МУЗЫКАЛЬНО-ИНФОРМАЦИОННЫЙ БАНК

Поиск по сайту







    HHendrix Jimi • Driving South (tab) (аккорды и текст - chords & lyrics)


    251

    Print

    Видео «Driving South (tab) (Hendrix Jimi)»

    Видео клипы к песне подбираются автоматически сайтом youtube. Возможны некоторые несоответствия клипов песне.

    ↑ Спрятать рекламу ↑



    Download


     
    
    
    Drifter`s Escape - Jimi Hendrix
     
       main riff          
     G|------4-----------|
     D|646--6-6--646-----|
     A--4464-|
     E------4|
     
     Here are some variations of that pattern
     
     G|------4------4464---------------|
     D|646--6-6--646----6-------------6|
     A-------|------2------2242-|------2------2242-|
     E-------|424--4-4--424----4|424--4-4--424-----|
     
       After about two minutes of the song, it changes to these riffs and variations of
     G|--------4-|----------|
     D|6646--66-6|----------|
     A|----------|--------2-|
     E|----------|4424--44-4|
     

    Тональность:

    Нет текста!



    Назад
    Рекомендуем посмотреть другие песни исполнителя «Hendrix Jimi»:

    • Комментарии Facebook ()
    • Комментарии ВКонтакте



    Добавить в Избранное Браузера
    Сохранить здесь Очистить


    x

    0


    +
    -

    +
    -

    -

    Авторизация





    Зарегистрироваться

    M

    Дата и время

    • 21:20:07
       

    Социальные ссылки


    Наши приложения

    • Muzbank App Play Market
    • Muzbank Amazon App