MUZBANK



A Most Complete Bank Of Music Information

МУЗЫКАЛЬНО-ИНФОРМАЦИОННЫЙ БАНК

Поиск по сайту







    HHendrix Jimi • Purple Haze (аккорды и текст - chords & lyrics)


    168

    Print

    Видео «Purple Haze (Hendrix Jimi)»

    Видео клипы к песне подбираются автоматически сайтом youtube. Возможны некоторые несоответствия клипов песне.

    ↑ Спрятать рекламу ↑



    Download



     
    
    
    Purple Haze - Jimi Hendrix
     
     Here`s the correct way to play Purple Haze on bass.
     The version previously held in the BTA was not a bass tab.
     It was a guitar tab (and not a very good one)
     
       intro
     G|---------------------------------------------------------------------------------|
     D|---------------------------------------------------------------------------------|
     A|--7---7---7---7---7-7-7---7-7-7---7-7-7---7-7-7---7-7-7---7-7-7---7-7-7---7-7-7--|
     E|0---0---0---0---0----0-00----0-00----0-00----0-00----0-00----0-00----0-00----0-0-|
     
       verse riff          chorus "excuse me while I kiss.."
     G|-------------------|---------------|
     D|-------------------|--------5--5-|
     A|7-7-07775-------457|7h975--5---5---|
     E|---------333-055---|------7---7----|
     
       solo/outro "help me  help me"
     G|---------------------------------------------------------------------------------------------
     D|---------------------------------------------------------------------------------------------
     A|------------------------555-555---7-7-7-(7)/999-555---7-7-7-/999-555---7-7-7-/999-555---7-
     E|3h555-3h555-5h777-5h777---------0----0-0-------------0----0-0----------0----0-0----------0---
     
        
     -------------------------------|
     -------------------------------|
     7-7-/999-555---7-7-7-/999-555|
     -0-0----------0----0-0---------|
     
       return after solo
     G|------------------------------------------------------------------|
     D|------------------------------------------------------------------|
     A|---7-7-7---7-7-7---7-7-7---7-7-7---7-7-7---7-7-7---7-7-7---7-7-7--|
     E|-0----0-00----0-00----0-00----0-00----0-00----0-00----0-00----0-0-|
     
     tabbed by Achilles (blue_sincere@hotmail.com)
     

    Тональность:

    Нет текста!



    Назад
    Рекомендуем посмотреть другие песни исполнителя «Hendrix Jimi»:

    • Комментарии Facebook ()
    • Комментарии ВКонтакте



    Добавить в Избранное Браузера
    Сохранить здесь Очистить


    x

    0


    +
    -

    +
    -

    -

    Авторизация





    Зарегистрироваться

    M

    Дата и время

    • 12:56:04
       

    Социальные ссылки


    Наши приложения

    • Muzbank App Play Market
    • Muzbank Amazon App