MUZBANK



A Most Complete Bank Of Music Information

МУЗЫКАЛЬНО-ИНФОРМАЦИОННЫЙ БАНК

Поиск по сайту







    HHerrick Dave • Load Bearing (аккорды и текст - chords & lyrics)


    294

    Print

    Видео «Load Bearing (Herrick Dave)»

    Видео клипы к песне подбираются автоматически сайтом youtube. Возможны некоторые несоответствия клипов песне.

    ↑ Спрятать рекламу ↑



    Download



     
    
    
    Dave Herrick - Load Bearing
    
    e--------------------------------------------|
    b--------------------------------------8-10~8|
    g----------------8-10~8-----------8-10-------|
    d-----------8-10-------------8-10------------|
    a------8-10-------------8-10-----------------|
    e-8-10---------------------------------------|
    
    
    e----------------------------10h12-13-|
    b-------------------10h12-13----------|
    g-------------10h12-------------------|
    d-------10h12-------------------------|
    a-10h12-------------------------------|
    e-------------------------------------|
    
    e-10h12~-10h12~-10h12~-10h12~-10------|
    b-10h12~-10h12~-10h12~-10h12~-10------|
    g-------------------------------12-10-|
    d-------------------------------------|
    a-------------------------------------|
    e-------------------------------------|
    
    
    e--------12-14~14~14~14~--14~-14--|
    b-----14----14~14~14~14~--15~-15--|
    g--14---------------------14~-----|
    d---------------------------------|
    a---------------------------------|
    e---------------------------------|
    
    e-6p3-5p3-------------------|
    b---------6p3-5p3-----------|
    g-----------------5p3-4p3---|
    d-------------------------5-|
    a---------------------------|
    e---------------------------|
     

    Тональность:

    Нет текста!



    Назад
    Рекомендуем посмотреть другие песни исполнителя «Herrick Dave»:

    • Комментарии Facebook ()
    • Комментарии ВКонтакте



    Добавить в Избранное Браузера
    Сохранить здесь Очистить


    x

    0


    +
    -

    +
    -

    -

    Авторизация





    Зарегистрироваться

    M

    Дата и время

    • 19:38:57
       

    Социальные ссылки


    Наши приложения

    • Muzbank App Play Market
    • Muzbank Amazon App