MUZBANK



A Most Complete Bank Of Music Information

МУЗЫКАЛЬНО-ИНФОРМАЦИОННЫЙ БАНК

Поиск по сайту







    HHerrick Dave • Player (аккорды и текст - chords & lyrics)


    247

    Print

    Видео «Player (Herrick Dave)»

    Видео клипы к песне подбираются автоматически сайтом youtube. Возможны некоторые несоответствия клипов песне.

    ↑ Спрятать рекламу ↑



    Download


     
    
    
    Dave Herrick - Player
    Sam I Am (omahaw@hotmail.com)
    
    
        F#5 E5       C#5                                 A#5
      e:---------  --------------------------------------------
      B:---------  --------------------------------------------
      G:---------  --------------------------------------------
      D:--42-22-  -/11-11-11-11-11-11-11-11---2-2-2-4-4-6-6---
      A:--42-22-  -/11-11-11-11-11-11-11-11---2-2-2-4-4-6-6---
      E:--2-00-  -/9--9--9--9--9--9--9--9----0-0-0-2-2-4-4---
      
      Verse:
          C#5
      e:------------------------------------
      B:------------------------------------
      G:------------------------------------
      D:--11-11-11-11-11-11-11-11-11-11-11--
      A:--11-11-11-11-11-11-11-11-11-11-11--
      E:--9--9--9--9--9--9--9--9--9--9--9---
          ^                       ^  
          C#5                       Cb5 
      e:-----------------------------------------
      B:-----------------------------------------
      G:-----------------------------------------
      D:--11-11-11-11-11-11-11-11-119/11-11-11--
      A:--11-11-11-11-11-11-11-11-119/11-11-11-- 
      E:--9--9--9--9--9--9--9--9--9-7/9--9--9---
          ^                       ^
      
      
      Then comes this part:
            E5         Cb5   F#5         C#5
      e:--------0----------------------------------
      B:---------0--------------------------------- After the second
      G:------------------------------------------- time they play 
      D:----2------2----9-9--4--4-4-4--4/11-11-11-- this, go to the
      A:----2-----------9-9--4--4-4-4--4/11-11-11-- chorus...
      E:----0-----------7-7--2--2-2-2--2/9--9--9---  
      
      Chorus:
         Cb5 C#5
      e:-------------------------------------------
      B:------------------------------------------- the rythm is way
      G:------------------------------------------- off here, but 
      D:--9/11-11--9/11-11--9/11--9/11-11--9/11-11- you get the idea
      A:--9/11-11--9/11-11--9/11--9/11-11--9/11-11-
      E:--7/9--9---7/9--9---7/9---7/9--9---7/9--9--
      
             E5            Cb5   F#5
      e:-------0--------------------------------------------------
      B:--------0-------------------------------------------------
      G:----------------------------------------------------------
      D:----2-----2--------9-9--4--4-4-4---9/11-11--9/11-11--9/11- 
      A:----2--------------9-9--4--4-4-4---9/11-11--9/11-11--9/11-
      E:----0--------------7-7--2--2-2-2---7/9--9---7/9--9---7/9--
        
          A#5           F#5
      e:---------------------------------------------------
      B:---------------------------------------------------
      G:---------------------------------------------------
      D:--6-6-6-6-6-6-6-4-4-4-4-4-4-4-4--9/11-11--9/11-11--
      A:--6-6-6-6-6-6-6-4-4-4-4-4-4-4-4--9/11-11--9/11-11--
      E:--4-4-4-4-4-4-4-2-2-2-2-2-2-2-2--7/9--9---7/7--9---
      
      e:----------------------------------------------------
      B:----------------------------------------------------
      G:----------------------------------------------------
      D:--6-6-6-6-6-6-6-6-4-4-4-4-4-4-4-4-2-2-2-2-2-2-2-2---
      A:--6-6-6-6-6-6-6-6-4-4-4-4-4-4-4-4-2-2-2-2-2-2-2-2---
      E:--4-4-4-4-4-4-4-4-2-2-2-2-2-2-2-2-0-0-0-0-0-0-0-0---
         
      e:-------------------------------------
      B:-------------------------------------
      G:-------------------------------------                      
      D:--4-4-4--4/5--5-5--/6-6-6-6-6-6-6-6--
      A:--2-2-2--2/3--3-3--/4-4-4-4-4-4-4-4-- 
      E:-------------------------------------
     

    Тональность:

    Нет текста!



    Назад
    Рекомендуем посмотреть другие песни исполнителя «Herrick Dave»:

    • Комментарии Facebook ()
    • Комментарии ВКонтакте



    Добавить в Избранное Браузера
    Сохранить здесь Очистить


    x

    0


    +
    -

    +
    -

    -

    Авторизация





    Зарегистрироваться

    M

    Дата и время

    • 15:23:49
       

    Социальные ссылки


    Наши приложения

    • Muzbank App Play Market
    • Muzbank Amazon App