MUZBANK



A MOST COMPLETE BANK OF MUSIC INFORMATION

МУЗЫКАЛЬНО-ИНФОРМАЦИОННЫЙ БАНК







    HHIM • And Love Said No (аккорды и текст - chords & lyrics)


    523

    Print

    Видео «And Love Said No (HIM)»

    Видео клипы к песне подбираются автоматически сайтом youtube. Возможны некоторые несоответствия клипов песне.

    ↑ Спрятать рекламу ↑





     
    
    
    intro
    normal tuning
    
    clean
    e---------------------------------------
    b8p0--5p0--7p0--3p0--3/5-8p0--5p0--7p0--
    g---0----0----0----0--------0----0----0-
    d---------------------------------------
    a---------------------------------------
    e---------------------------------------
    
    main riff - distortion
    e------------------------------
    b------------------------------
    g------------------------------
    d--------2222227777777555555555
    a--------2222225555555333335555
    e2h3-2~~-0000005555555333333333
    
    interlude riff - distortion
    e---------------------------------------
    b---------------------------------------
    g---------------------------------222-5/
    d---------------------------------222-5/
    a---------------------------------000-3/
    e2h3-2-00-2h3-2-00-2h3-2-00-2h3-2-------
     

    Тональность:

    Это должно быть в ТОП-листе! - Топ-лист композиций



    Назад
    Рекомендуем посмотреть другие песни исполнителя «HIM»:

    • Комменты Fb ()
    • Комменты ВК



    Добавить в Избранное Браузера
    Сохранить здесь Очистить


    x

    0


    +
    -

    +
    -

    -

    Авторизация





    Зарегистрироваться

    M

    Дата и время

    • 05:16:04
       

    Социальные ссылки


    Наши приложения

    • Muzbank App Play Market
    • Muzbank Amazon App