MUZBANK



A Most Complete Bank Of Music Information

МУЗЫКАЛЬНО-ИНФОРМАЦИОННЫЙ БАНК

Поиск по сайту







    HHIM • Buried Alive By Love (аккорды и текст - chords & lyrics)


    343

    Print

    Видео «Buried Alive By Love (HIM)»

    Видео клипы к песне подбираются автоматически сайтом youtube. Возможны некоторые несоответствия клипов песне.

    ↑ Спрятать рекламу ↑



    Download


     
    
    
    Main Riff
    E|--------------------------------------------------------|
    B|--------------------------------------------------------|
    G|--------------------------------------------------------|
    D|--------------------------------------------------------|
    A|-2-2-2-2-2-2--------------------------------------------|
    E|-3-0-0-0-0-0--------------------------------------------|
    
    Riff 1
    |---------------------------------------------------------|
    |---------------------------------------------------------|
    |------------5-5-5-5-5------------------------------------|
    |-2-2-2-2-2--5-5-5-5-5------------------------------------|
    |-2-2-2-2-2 

    Тональность:

    Нет текста!



    Назад
    Рекомендуем посмотреть другие песни исполнителя «HIM»:

    • Комментарии Facebook ()
    • Комментарии ВКонтакте



    Добавить в Избранное Браузера
    Сохранить здесь Очистить


    x

    0


    +
    -

    +
    -

    -

    Авторизация





    Зарегистрироваться

    M

    Дата и время

    • 11:14:12
       

    Социальные ссылки


    Наши приложения

    • Muzbank App Play Market
    • Muzbank Amazon App