MUZBANK



A Most Complete Bank Of Music Information

МУЗЫКАЛЬНО-ИНФОРМАЦИОННЫЙ БАНК

Поиск по сайту







    HHIM • Razorblade Kiss (solo ver 2) (аккорды и текст - chords & lyrics)


    315

    Print

    Видео «Razorblade Kiss (solo ver 2) (HIM)»

    Видео клипы к песне подбираются автоматически сайтом youtube. Возможны некоторые несоответствия клипов песне.

    ↑ Спрятать рекламу ↑



    Download


     
    
    
    SOLO
    |--------------------------|---------------------------|
    |--------------------------|---------------------------|
    |--------------------------|---------------------------|
    |--------------------------|-----6----9--9--6-69/-6---|
    |-------------7--7-7~7-----|--7----------------------7|
    |--19-----9------------9--|---------------------------|
    
    |--------------------------|--------------------------|
    |--------------------------|--------------------------|
    |--------------------------|--------------------------|
    |-----6----9--9--6-69/-6--|-------------------9~-----|
    |--9-----------------------|--7-9~-------9/11----11--|
    |--------------------------|--------------------------|
    
    |-------------------------|---------|----------------------------|
    |-------------------------|---------|--9-9--9-9--9-9--9-9--9-9---|
    |-----9----6~-------------|--9--6~--|----------------------------|
    |--9---------------9------|---------|----------------------------|
    |-------------9/11----11--|---------|----------------------------|
    |-------------------------|---------|----------------------------|
    
    |-------------|------------------------|--7r---------------------|
    |--7h9p7------|--9r------7-------------|----------9-----7--------|
    |--------9-8~-|-------6-----6--9--6----|-------6-----6-----9--8--|
    |-------------|------------------------|-------------------------|
    |-------------|------------------------|-------------------------|
    |-------------|------------------------|-------------------------|
    
    |--------------------------------------------------|
    |--------------------------------------------------|
    |--9--11h9p11h9p11h9p11h9p11h9p11h9p11h9p11h9p11h9-|
    |--------------------------------------------------|
    |--------------------------------------------------|
    |--------------------------------------------------|
    
    |------------------------------------------------------------|
    |------------------------------------------------------------|
    |--11--13h11p13h11p13h11p13h11p13h11p13h11p13h11p13h11p13h11-|
    |------------------------------------------------------------|
    |------------------------------------------------------------|
    |------------------------------------------------------------|
    
    |----------------------------------------|
    |--14--14-14-14--14-14-14--14-14-14--16--|
    |----------------------------------------|
    |----------------------------------------|
    |----------------------------------------|
    |----------------------------------------|
    
    |----------------------------------------|
    |--16--16-16-16--16-16-16--16-16-16--17--|
    |----------------------------------------|
    |----------------------------------------|
    |----------------------------------------|
    |----------------------------------------|
    
    |----------------------------------------|------------------||
    |--17--17-17-17--17-17-17--17-17-17--19~-|------------------||
    |----------------------------------------|------------------||
    |----------------------------------------|------------------||
    |----------------------------------------|------------------||
    |----------------------------------------|------------------||
     

    Тональность:

    Нет текста!



    Назад
    Рекомендуем посмотреть другие песни исполнителя «HIM»:

    • Комментарии Facebook ()
    • Комментарии ВКонтакте



    Добавить в Избранное Браузера
    Сохранить здесь Очистить


    x

    0


    +
    -

    +
    -

    -

    Авторизация





    Зарегистрироваться

    M

    Дата и время

    • 18:38:08
       

    Социальные ссылки


    Наши приложения

    • Muzbank App Play Market
    • Muzbank Amazon App