MUZBANK



A Most Complete Bank Of Music Information

МУЗЫКАЛЬНО-ИНФОРМАЦИОННЫЙ БАНК

Поиск по сайту







    HHives • Get Free (аккорды и текст - chords & lyrics)


    225

    Print

    Видео «Get Free (Hives)»

    Видео клипы к песне подбираются автоматически сайтом youtube. Возможны некоторые несоответствия клипов песне.

    ↑ Спрятать рекламу ↑



    Download


     
    
    
    Intro Heavy Distortion
    ----------------
    ----------------
    ----------------
    ----------------Play 3 times
    -5-55-5~5~5^-3--
    ----------------
    
    ----------------
    ----------------
    -5555-----------
    -5555--5555-----
    -3333--5555-----
    -------3333-----
    
    Chorus
    -------------------------
    -------------------------
    -------------------------
    -5/7-5/7-5/7-------------
    -3/5-3/5-3/5--555-66-33--
    --------------333-44-11--
    
    Verses
    ----------------
    ----------------
    ----------------
    ----------------
    -5-55-5~5~5^-3--
    ----------------Play three times but 
    play the first two muted
    
    --------------
    --------------
    -5555---------
    -5555-5555----
    -3333-5555----
    ------3333----
    
    Fill 1
    -----------
    -----------
    ---5-7-5---
    -----------
    -5^--------play three times
    -----------
    
    Fill 2
    ---------
    ---------
    -7^~5----
    ------7--
    -------8-
    ---------play once
    
    Bridge
    ---------------------
    ---------------------
    ---------------------
    -77-556677-----------
    -55--------77-557788-play twice
    -----------55--------
    
    -----------------
    -----------------
    -----------------
    -8-777777777-----
    -8-777777777-----
    -6-555555555-----
    
    Order:
    IntroX2
    VerseX2
    ChorusX4
    Fill1&2X2
    VerseX2
    ChorusX4
    BridgeX1
    IntroX2
    ChorusX4
     

    Тональность:

    Нет текста!



    Назад
    Рекомендуем посмотреть другие песни исполнителя «Hives»:

    • Комментарии Facebook ()
    • Комментарии ВКонтакте



    Добавить в Избранное Браузера
    Сохранить здесь Очистить


    x

    0


    +
    -

    +
    -

    -

    Авторизация





    Зарегистрироваться

    M

    Дата и время

    • 15:54:21
       

    Социальные ссылки


    Наши приложения

    • Muzbank App Play Market
    • Muzbank Amazon App