MUZBANK



A Most Complete Bank Of Music Information

МУЗЫКАЛЬНО-ИНФОРМАЦИОННЫЙ БАНК

Поиск по сайту







    HHives • Mad Man (аккорды и текст - chords & lyrics)


    324

    Print

    Видео «Mad Man (Hives)»

    Видео клипы к песне подбираются автоматически сайтом youtube. Возможны некоторые несоответствия клипов песне.

    ↑ Спрятать рекламу ↑



    Download


     
    
    
    This is my 1st tab, its pretty easy. If you have an electric turn the treble up
    quite high if you dont just bash the top stings harder. i put the hole thing  on
    because i hate crap half-assed tabs
    
    intro
    
    e|----------------------------------------|
    B|----------------------------------------|
    G|----------------------------------------|
    D|----------------------------------------|
    A|----------------------------------------|
    E|---5--3--7--5-5-5-5--3-3-3-3--7-7-7-7---|
    
    verse/chorus
    
    e|---5--3--7---|         strum the 1st & 2nd chords 8 times and the 3rd 16 
    B|---5--3--7---|         in the verses
    G|---6--4--8---|         
    D|---7--5--9---|         the 1st 4, 2nd 1 and 3rd 16 times in the chorus
    A|---7--5--9---|
    E|---5--3--7---|
    
    theres a bridge after the 2nd chorus which is the same
    but strummed 2,2,16 twice then
    
    e|----------------------------|
    B|----------------------------|
    G|----------------------------|
    D|----------------------------|
    A|----------------------------|
    E|---5--7--6--4--6--8--6--4---|
    
    then a verse the a chorus a few times. 
    
    thats it. hives are good.
    if you can tab aka idiot AND automatic schmuck. do cos i want it 
    
    ENJOY THIS TAB
     

    Тональность:

    Нет текста!



    Назад
    Рекомендуем посмотреть другие песни исполнителя «Hives»:

    • Комментарии Facebook ()
    • Комментарии ВКонтакте



    Добавить в Избранное Браузера
    Сохранить здесь Очистить


    x

    0


    +
    -

    +
    -

    -

    Авторизация





    Зарегистрироваться

    M

    Дата и время

    • 13:22:17
       

    Социальные ссылки


    Наши приложения

    • Muzbank App Play Market
    • Muzbank Amazon App