MUZBANK



A Most Complete Bank Of Music Information

МУЗЫКАЛЬНО-ИНФОРМАЦИОННЫЙ БАНК

Поиск по сайту







    HHives • Oh Lord When How (аккорды и текст - chords & lyrics)


    290

    Print

    Видео «Oh Lord When How (Hives)»

    Видео клипы к песне подбираются автоматически сайтом youtube. Возможны некоторые несоответствия клипов песне.

    ↑ Спрятать рекламу ↑



    Download


     
    
    
    Oh lord when how
    by The hives
    
    e-|---|
    B-|---|
    G-|---|
    D-|-2-|
    A-|-2-|
    E-|-0-|
    
    VERSE
    
    e-|-----------------|
    B-|-----------------|
    G-|-------7-7---7---|
    D-|-7-7-7-7-7-7-7-7-|
    A-|-7-7-7-5-5-7-5-7-|
    E-|-5-5-5-----5---5-|
    
    END OF VERSE
    
    e-|-------------|
    B-|-------------|
    G-|-10-7-10-5-7-|
    D-|-10-7-10-5-7-|
    A-|--8-5--8-3-5-|
    E-|-------------|
    
    CHORUS
    
    e-|-----------|    |-------| |-------------|
    B-|-----------|    |-------| |-------------|
    G-|-7---5-----| x3 |-7-5-9-| |-10-7-10-5-7-|
    D-|-7-3-5-5-7-|    |-7-5-9-| |-10-7-10-5-7-|
    A-|-5-3-3-5-7-|    |-5-3-7-| |--8-5--8-3-5-|
    E-|---1---3-5-|    |-------| |-------------|
    
    
    e-|---|
    B-|---|
    G-|---|
    D-|-7-|
    A-|-7-|
    E-|-5-|
     

    Тональность:

    Нет текста!



    Назад
    Рекомендуем посмотреть другие песни исполнителя «Hives»:

    • Комментарии Facebook ()
    • Комментарии ВКонтакте



    Добавить в Избранное Браузера
    Сохранить здесь Очистить


    x

    0


    +
    -

    +
    -

    -

    Авторизация





    Зарегистрироваться

    M

    Дата и время

    • 10:50:08
       

    Социальные ссылки


    Наши приложения

    • Muzbank App Play Market
    • Muzbank Amazon App