MUZBANK



A Most Complete Bank Of Music Information

МУЗЫКАЛЬНО-ИНФОРМАЦИОННЫЙ БАНК

Поиск по сайту







    HHives • Statecontrol (аккорды и текст - chords & lyrics)


    170

    Print

    Видео «Statecontrol (Hives)»

    Видео клипы к песне подбираются автоматически сайтом youtube. Возможны некоторые несоответствия клипов песне.

    ↑ Спрятать рекламу ↑



    Download


     
    
    
    The Hives - Statecontrol
    Tabbed By: chris
    EMail: rock_metal@prodigy.net
    
    
    Stadard Tuning(E A D G)
    
      Intro/
      |--------------|
      |--------------|
      |--------------|
      |(3)-----(3)---|
    
      1st verse/Outro
      |-----------------------|
      |------1---1------------|
      |-0-1-3-3-1-3--0-1-3----|
      |-----------------------|
      after verses
      2x
      |-----------------------|
      |*---------------------*|
      |*---------------------*|
      |-33333333--------------|
    
      2nd & 3rd verse
      |-----------------------|
      |-----------------------|
      |-0-1-3-----------------|
      |-----------------------|
      
      chorus
      |------------------------------|
      |------------------------------|
      |66666666--33333333------------|
      |-------------------(3)3333333-|
    
      8x
      |------------------------------|
      |------------------------------|
      |------------------------------|
      |--33333333--------------------|
     

    Тональность:

    Нет текста!



    Назад
    Рекомендуем посмотреть другие песни исполнителя «Hives»:

    • Комментарии Facebook ()
    • Комментарии ВКонтакте



    Добавить в Избранное Браузера
    Сохранить здесь Очистить


    x

    0


    +
    -

    +
    -

    -

    Авторизация





    Зарегистрироваться

    M

    Дата и время

    • 00:58:25
       

    Социальные ссылки


    Наши приложения

    • Muzbank App Play Market
    • Muzbank Amazon App