MUZBANK



A Most Complete Bank Of Music Information

МУЗЫКАЛЬНО-ИНФОРМАЦИОННЫЙ БАНК

Поиск по сайту







    HHome Grown • Bad News Blair (аккорды и текст - chords & lyrics)


    244

    Print

    Видео «Bad News Blair (Home Grown)»

    Видео клипы к песне подбираются автоматически сайтом youtube. Возможны некоторые несоответствия клипов песне.

    ↑ Спрятать рекламу ↑



    Download


     
    
    
    Song- Bad News Blair
    Band- Home Grown
    Album- Act Your Age
    Tabbed By- Jesse Krupocin (JK976783@aol.com) 
    email with suggestions and requests
    
    **Watch for order of song, notes in there to guide**
    
    
    Intro
    Gb :----------------------------------------------------------------|
    Db :-------------------5-----------------------------------------5--|
    Ab :--0-1-------0-1-333-3-------0000011111-----888887777755555333-3-|
    Eb :1-----3---1------------11111----------33333---------------------|
    
    Part 1
    Gb :-----------------------------------------|
    Db :--------532--333-2------232h3p2----------|
    Ab :11101233---3------53--33--------111012-3-|
    Eb :-----------------------------------------|
    
    Part 2 
    Gb :-------------------0002333-|
    Db :33----333----33------------|
    Ab :---533---311---533---------|
    Eb :---------------------------|
    
    Fill 1  (now shes calling your house....)
    Gb :-------------------------------------------|
    Db :-----------------------6797-976-4575---9---|
    Ab :-----0000011111-------7----6---5----777-7--|
    Eb :11111----------33333-----------------------|
    
    Back to Part 1
    
    Part 3  (girl thats gonna break your heart again...)
    Gb :--------------|
    Db :333----23-----|
    Ab :---5333-------|
    Eb :--------------|
    
    followed by.. (played twice)
    Gb :-------------------------------------------|
    Db :---------------------------------32-23532--|
    Ab :0111113333300000555551111333333----3-------|
    Eb :-------------------------------------------|
    
    Then Part 1 during guitar solo
    
    Followed by Part 2 with some variations such as:
    Gb :--320--|
    and others thrown in, easy to figure out...
    
    Followed by..
    Gb :--------------------------------|
    Db :----------2-----------------5---|
    Ab :---0--1---3-----8--7--5--333-3--|
    Eb :1-------------------------------|
    
    Part 1 one more time
    Then Part 3 one more time
     

    Тональность:

    Нет текста!



    Назад
    Рекомендуем посмотреть другие песни исполнителя «Home Grown»:

    • Комментарии Facebook ()
    • Комментарии ВКонтакте



    Добавить в Избранное Браузера
    Сохранить здесь Очистить


    x

    0


    +
    -

    +
    -

    -

    Авторизация





    Зарегистрироваться

    M

    Дата и время

    • 21:05:41
       

    Социальные ссылки


    Наши приложения

    • Muzbank App Play Market
    • Muzbank Amazon App