MUZBANK



A Most Complete Bank Of Music Information

МУЗЫКАЛЬНО-ИНФОРМАЦИОННЫЙ БАНК

Поиск по сайту







    HHome Grown • Give It Up (аккорды и текст - chords & lyrics)


    201

    Print

    Видео «Give It Up (Home Grown)»

    Видео клипы к песне подбираются автоматически сайтом youtube. Возможны некоторые несоответствия клипов песне.

    ↑ Спрятать рекламу ↑



    Download


     
    
    
    -------------------------------------------------------------------------------
    		   GIVE IT UP - Homegrown
    -------------------------------------------------------------------------------
    
    By:  Robert (freeskier20@hotmail.com) 
    
    Not a hard song to play by homegrown.
    
    Tuned down a half step
    
    
    BEFORE INTRO
    Guitar 1:
    e|---------|
    B|---------|
    G|---------|
    D|--2-2-2--|
    A|--2-2-2--|
    E|--0-0-0--|
    
    
    INTRO
    Guitar 1:
    e|---------------------------------------------------------------------------|
    B|---------------------------------------------------------------------------|
    G|---------------------------------------------------------------------------|
    D|--7-7-7-7-7-7-7-7-7-7-7-7-7-2-2-2-4-4-4-4-4-4-4-4-4-4-4-4-4-2-2-2----------| x 2
    A|--7-7-7-7-7-7-7-7-7-7-7-7-7-2-2-2-4-4-4-4-4-4-4-4-4-4-4-4-4-2-2-2----------|
    E|--5-5-5-5-5-5-5-5-5-5-5-5-5-0-0-0-2-2-2-2-2-2-2-2-2-2-2-2-2-0-0-0----------|
    
    Guitar 2:
    e|---------------------------------------------------------------------------|
    B|--10-10-10-------9-9-9-------12-12-9-9-10-10-10-------9-9-9----------------|
    G|------------------------------------------------------------------8r-------|
    D|-----------9-9-9-------9-9-9--------------------9-9-9-------9-9-9----9-----| x 2
    A|---------------------------------------------------------------------------|
    E|---------------------------------------------------------------------------|
    
    
    VERSE
    Guitar 1:
    e|---------------------------------------------------------------------------|
    B|---------------------------------------------------------------------------|
    G|---------------------------------------------------------------------------|
    D|--7-----------------------------------------------------------------2-2-2--|
    A|--7-----------------------------------------------------------------2-2-2--|
    E|--5-----------------------------------------------------------------0-0-0--|
    
    Guitar 2:
    e|---------------------------------------------------------------------------|
    B|---------------------------------------------------------------------------|
    G|--9------------------------------------------------------------------------|
    D|--7-----------------------------------------------------------------2-2-2--|
    A|--------------------------------------------------------------------2-2-2--|
    E|--------------------------------------------------------------------0-0-0--|
    
    
    CHORUS
    Both Guitars:
    e|---------------------------------------------------------------------------|
    B|---------------------------------------------------------------------------|
    G|---------------------------------------------------------------------------|
    D|--7-7-7-7-7-7-7-7-7-7-7-7-7-2-2-2-4-4-4-4-4-4-4-4-4-4-4-4-4-2-2-2----------| x 2
    A|--7-7-7-7-7-7-7-7-7-7-7-7-7-2-2-2-4-4-4-4-4-4-4-4-4-4-4-4-4-2-2-2----------|
    E|--5-5-5-5-5-5-5-5-5-5-5-5-5-0-0-0-2-2-2-2-2-2-2-2-2-2-2-2-2-0-0-0----------|
    
    
    (Repeat INTRO)
    
    (Repeat VERSE)
    
    (Repeat CHORUS)
    
    
    INTERLUDE
    Guitar 1:
    e|---------------------------------------------------------------------------|
    B|---------------------------------------------------------------------------|
    G|---------------------------------------------------------------------------|
    D|--6-6-6-6-6-6-6-6-6-6-6-6-6-6-6-6--7-7-7-7-7-7-7-7-7-7-7-7-7---------------|
    A|--7-7-7-7-7-7-7-7-7-7-7-7-7-7-7-7--7-7-7-7-7-7-7-7-7-7-7-7-7---------------|
    E|--4-4-4-4-4-4-4-4-4-4-4-4-4-4-4-4--5-5-5-5-5-5-5-5-5-5-5-5-5---------------|
    
    Guitar 2:
    e|---------------------------------------------------------------------------|
    B|---------------------------------------------------------------------------|
    G|---------------------------------------------------------------------------|
    D|---6-6-6-6-6-6-6-6-----------------7-7-7-7-7-7-7-7-7-7-7-7-9---------------|
    A|-------------------7-7-7-7-6-6-6-6-----------------------------------------|
    E|---------------------------------------------------------------------------|
    
    
    BRIDGE
    Both Guitars:
    e|-------------------------------------------------------------------------|
    B|-------------------------------------------------------------------------|
    G|--------------4-4-4----------------------------4-4-4---------------------|
    D|--7-7-7-2-2-2-4-4-4-2-2-2-6-6-9-9--7-7-7-2-2-2-4-4-4-2-2-2-6-6-9-9-------| x 3
    A|--7-7-7-2-2-2-2-2-2-2-2-2-6-6-9-9--7-7-7-2-2-2-2-2-2-2-2-2-6-6-9-9-------|
    E|--5-5-5-0-0-0-------0-0-0-4-4-7-7--5-5-5-0-0-0-------0-0-0-4-4-7-7-------|
    
    e|---------------------------------------------------------------------------|
    B|---------------------------------------------------------------------------|
    G|--------------4-4------------------------------4-4-------------------------|
    D|--7-7---2-2---4-4---2-2---6-6-9-9--7-7---2-2---4-4---2-2---6-6-9-9---------|
    A|--7-7---2-2---2-2---2-2---6-6-9-9--7-7---2-2---2-2---2-2---6-6-9-9---------|
    E|--5-5---0-0---------0-0---4-4-7-7--5-5---0-0---------0-0---4-4-7-7---------|
    
    e|---------------------------------------------------------------------------|
    B|---------------------------------------------------------------------------|
    G|--------------4-4-4----------------------------4-4-4-----------------------|
    D|--7-7-7-2-2-2-4-4-4-2-2-2-6-6-9-9--7-7-7-2-2-2-4-4-4-2-2-2-6-6-9-9---------|
    A|--7-7-7-2-2-2-2-2-2-2-2-2-6-6-9-9--7-7-7-2-2-2-2-2-2-2-2-2-6-6-9-9---------|
    E|--5-5-5-0-0-0-------0-0-0-4-4-7-7--5-5-5-0-0-0-------0-0-0-4-4-7-7---------|
    
    
    SLOW PART
    Guitar 1:
    e|---------------------------------------------------------------------------|
    B|---------------------------------------------------------------------------|
    G|---------------------------------------------------------------------------|
    D|--7------------------------------------------------------------------------|
    A|--7------------------------------------------------------------------------|
    E|--5------------------------------------------------------------------------|
    
    Guitar 2:
    e|----------0-------9-------0------------------------------------------------|
    B|---------10------10------10------------------------------------------------|
    G|----------9-------9-------9------------------------------------------------|
    D|---------------------------------------------------------------------------|
    A|---------------------------------------------------------------------------|
    E|---------------------------------------------------------------------------|
    
    
    BUILD-UP
    Both Guitars:
    e|---------------------------------------------------------------------------|
    B|---------------------------------------------------------------------------|
    G|--6-6-6-6-6-6-6-6-6-6-6-6-6-6-6-6-9-9-9-9-9-9-9-9-9-9-9-9-9-9-9-9----------|
    D|---------------------------------------------------------------------------|
    A|--4-4-4-4-4-4-4-4-4-4-4-4-4-4-4-4-7-7-7-7-7-7-7-7-7-7-7-7-7-7-7-7----------|
    E|---------------------------------------------------------------------------|
    
    e|---------------------------------------------------------------------------|
    B|---------------------------------------------------------------------------|
    G|--14-14-14-14-14-14-14-14-14-14-14-14-14-14-14-14--------------------------|
    D|---------------------------------------------------------------------------|
    A|--12-12-12-12-12-12-12-12-12-12-12-12-12-12-12-12--------------------------|
    E|---------------------------------------------------------------------------|
    
    e|---------------------------------------------------------------------------|
    B|--17-17-17-17-17-17-17-17-18-18-18-18-18-17-17-17--------------------------|
    G|---------------------------------------------------------------------------|
    D|--14-14-14-14-14-14-14-14-15-15-15-15-15-14-14-14--------------------------|
    A|---------------------------------------------------------------------------|
    E|---------------------------------------------------------------------------|
    
    
    (Repeat INTRO, which is the 3rd chorus)
    
    
    OUTRO
    Guitar 1:
    e|---------------------------------------------------------------------------|
    B|---------------------------------------------------------------------------|
    G|---------------------------------------------------------------------------|
    D|--6-6--6-6--6-6--6-6--6-6-6-6--7-7--7-7--7-7--7-7--7-7-7-7-----------------|
    A|--6-6--6-6--6-6--6-6--6-6-6-6--7-7--7-7--7-7--7-7--7-7-7-7-----------------|
    E|--4-4--4-4--4-4--4-4--4-0-2-4--5-5--5-5--5-5--5-5--5-0-4-5-----------------|
    
    Guitar 2:
    e|---------------------------------------------------------------------------|
    B|--9r---------------------------9r----------12------------------------------|
    G|--------------9------------------------------------------------------------|
    D|---------------------------------------------------------------------------|
    A|---------------------------------------------------------------------------|
    E|---------------------------------------------------------------------------|
    
    Guitar 1:
    e|---------------------------------------------------------------------------|
    B|---------------------------------------------------------------------------|
    G|---------------------------------------------------------------------------|
    D|--6-6--6-6--6-6--6-6--6-6-6-6--7-7--7-7--7-7--7-7--7-2-2-2-----------------|
    A|--6-6--6-6--6-6--6-6--6-6-6-6--7-7--7-7--7-7--7-7--7-2-2-2-----------------|
    E|--4-4--4-4--4-4--4-4--4-0-2-4--5-5--5-5--5-5--5-5--5-0-0-0-----------------|
    
    Guitar 2:
    e|------------------------------------------------9--------------------------|
    B|--9r---------------------------9r----------12------------------------------|
    G|--------------9------------------------------------------------------------|
    D|---------------------------------------------------------------------------|
    A|---------------------------------------------------------------------------|
    E|---------------------------------------------------------------------------|
    
    
    ==============================================================================
     

    Тональность:

    Нет текста!



    Назад
    Рекомендуем посмотреть другие песни исполнителя «Home Grown»:

    • Комментарии Facebook ()
    • Комментарии ВКонтакте



    Добавить в Избранное Браузера
    Сохранить здесь Очистить


    x

    0


    +
    -

    +
    -

    -

    Авторизация





    Зарегистрироваться

    M

    Дата и время

    • 05:27:53
       

    Социальные ссылки


    Наши приложения

    • Muzbank App Play Market
    • Muzbank Amazon App