MUZBANK



A MOST COMPLETE BANK OF MUSIC INFORMATION

МУЗЫКАЛЬНО-ИНФОРМАЦИОННЫЙ БАНК







    HHomegrown • Barbie Girl (аккорды и текст - chords & lyrics)


    334

    Print

    Видео «Barbie Girl (Homegrown)»

    Видео клипы к песне подбираются автоматически сайтом youtube. Возможны некоторые несоответствия клипов песне.

    ↑ Спрятать рекламу ↑





     
    
    
    homegrown - Barbie Girl
    Tabbed By: nathan read
    EMail: keeponskanknroni@aol.com
    
    
    1st time:        every time after that:
    e|--------------|----------------------|
    B|--------------|----------------------|
    G|-10-11-7h8-10-|-10-11-8-10-----------|
    D|--------------|----------------------|
    A|--------------|----------------------|
    E|--------------|----------------------|
    
    intro/verse:
    1st part:     1st time:   2nd time through:
    e|-----------|-----------|---------------------|
    B|-----------|-----------|---------------------|
    G|-----------|-----------|---------------------|
    D|-------6-5-|-----------|---------------------|
    A|-8-4-6-4-3-|-----8-----|-8-8-8-8-8-8-8-8-8-8-|
    E|-6-2-4-----|-----6-----|-6-6-6-6-6-6-6-6-6-6-|
    
    chorus:
    e|-----------------------------|
    B|-----------------------------|
    G|-----------------------------|
    D|-------------------------6-5-|
    A|-8-8-8-8-4-4-4-4-6-6-6-6-4-3-|
    E|-6-6-6-6-2-2-2-2-4-4-4-4-----|
    
    outro:
    e|-------------------|
    B|-------------------|
    G|-------------------|
    D|-------------------|
    A|-8-8-8-8-4-4-4-6-8-|
    E|-6-6-6-6-2-2-2-4-6-|
     

    Тональность:

    Это должно быть в ТОП-листе! - Топ-лист композиций



    Назад
    Рекомендуем посмотреть другие песни исполнителя «Homegrown»:

    • Комменты Fb ()
    • Комменты ВК



    Добавить в Избранное Браузера
    Сохранить здесь Очистить


    x

    0


    +
    -

    +
    -

    -

    Авторизация





    Зарегистрироваться

    M

    Дата и время

    • 23:52:49
       

    Социальные ссылки


    Наши приложения

    • Muzbank App Play Market
    • Muzbank Amazon App