MUZBANK



A Most Complete Bank Of Music Information

МУЗЫКАЛЬНО-ИНФОРМАЦИОННЫЙ БАНК

Поиск по сайту







    HHoobastank • Crawling In The Dark (аккорды и текст - chords & lyrics)


    329

    Print

    Видео «Crawling In The Dark (Hoobastank)»

    Видео клипы к песне подбираются автоматически сайтом youtube. Возможны некоторые несоответствия клипов песне.

    ↑ Спрятать рекламу ↑



    Download



     
    
    
    Song name:  Crawling in the Dark
    Artist: Hoobastank
    Album: Hoobastank
    Tabbed by: the_bassgenius
    
    Very beginning:
    E|-2222
    
    Intro/chorus (part 1)x3
    G|--------------------------
    D|--------------------------
    A|-----------5-5-5-4--------
    E|-0-2-2-0-2--------5-0-0-0-
    B|--------------------------
    
    (Part 2)x1
    G|-----------------------------------
    D|-----------------------------------
    A|-----------------------------------
    E|-----------------------------------
    B|--3-3-3-3-3-3-3-3--5-5-5-5-5-5-5-5-
    
    Verse (part 1)x2
    G|------------------------------
    D|-------------4-4-4-4--2-2-2-2-
    A|------------------------------
    E|0-2-2-0-2-2-------------------
    B|------------------------------
    
    (Part 2) x2
    G|-------------------------------
    D|-------------------------------
    A|---5-5-5-5-5-------------------
    E|-0------0----5-5-5-5--0-0-0-0--
    B|-------------------------------
    
    
    Break (part1)x2
    G|-------------------------------------
    D|-------------------------------------
    A|-------------------------------------
    E|--0h2---0h2---0h2---0h2--0h2-3^------
    B|-------------------------------------
    
    (Part 2)x2
    G|---------------------------------------------------------
    D|---------------------------------------------------------
    A|---------------------------------------------------------
    E|--0h2-2-2-2-2-0h2-2-2-2-2-0h2-2-2-2-2-0h2-2-2-2-2-0h2-3-3
    B|---------------------------------------------------------
    
    (Part3)x1
    G|--------------------------------------
    D|--------------------------------------
    A|--------------------------------------
    E|--------------------------------------
    B|-3333333333333333--55555555--77777777-
    
    (Part 4)
    G|-------------------------------------
    D|--------------------------------5h7--
    A|-------------------------------------
    E|---------------------------5555------
    B|3333333333333333--55555555-----------
    
    Then play break Part 3 once through
    
    (Part 5)
    G|--------------------------------------------------
    D|--------------------------------------------------
    A|--------------------------------------------------
    E|333333333333333--555555555----------2222------2222
    B|--------------------------------------------------
     

    Тональность:

    Нет текста!



    Назад
    Рекомендуем посмотреть другие песни исполнителя «Hoobastank»:

    • Комментарии Facebook ()
    • Комментарии ВКонтакте



    Добавить в Избранное Браузера
    Сохранить здесь Очистить


    x

    0


    +
    -

    +
    -

    -

    Авторизация





    Зарегистрироваться

    M

    Дата и время

    • 21:38:03
       

    Социальные ссылки


    Наши приложения

    • Muzbank App Play Market
    • Muzbank Amazon App