MUZBANK



A Most Complete Bank Of Music Information

МУЗЫКАЛЬНО-ИНФОРМАЦИОННЫЙ БАНК

Поиск по сайту







    HHoobastank • Escape (аккорды и текст - chords & lyrics)


    202

    Print

    Видео «Escape (Hoobastank)»

    Видео клипы к песне подбираются автоматически сайтом youtube. Возможны некоторые несоответствия клипов песне.

    ↑ Спрятать рекламу ↑



    Download


     
    
    
    hoobastank
    album:the reason
    song:escape
    tune:DbAbDbGbBbEb (this song looks like its in dropped D, but it fades into the next
    song (just one). Which is in dropped Db,so
    
    intro/part 1
    |------------|                   |--------------------------------------|
    |------------|                   |--------------------------------------|
    |------------|                   |--------------------------------------|
    |------4-6---|                   |------4-6------4-6------4-6------4-6--|
    |------------|                   |--------------------------------------|
    |--6-6-------|                   |--4-4------4-4------3-3------3-3------|
    repeat this part 4x         
     
    chorus strum chords
    |------------------|------------------|-----|
    |------------------|------------------|-----|
    |------------------|------------------|-----|
    |--2---6---4---6---|--2---4---4---6---|--2--|
    |--2---6---4---4---|--2---2---4---4---|--2--|
    |--2---6---4---3---|--2-------4---3---|--2--|
                                           hold this chord
    part 1
    chorus 2x
    
    break : alternate between the to chords
    |---------|
    |---------|
    |---------|
    |--7---9--|
    |--7---9--|
    |--7---9--|
    
    solo thing
    |------------------------------|------------------------------|
    |------------------------------|------------------------------|
    |--9-9-9--8-8-8--111111-9-9-9--|--8-8-8--4-4-4--8-8-8--111111-|
    |------------------------------|------------------------------|
    |--7-7-7--6-6-6--9-9-9--7-7-7--|--6-6-6--2-2-2--6-6-6--9-9-9--|
    |------------------------------|------------------------------|
    
    |-------------------------------------------|---------------------|
    |-------------------------------------------|---------------------|
    |--9-9-9--8-8-8--111111-9-9-9--111111111111-|--14-14-14-14-14-14--|
    |-------------------------------------------|---------------------|
    |--7-7-7--6-6-6--9-9-9--7-7-7--9-9-9-9-9-9--|--12-12-12-12-12-12--|
    |-------------------------------------------|---------------------|
                                                  double time
    chorus 3x
    with 2nd gtr.
    |--------------------------------------------------|
    |--------------------------------------------------|
    |--9-9-9-9-9-8-11111111111111111111--101010101010--|
    |--------------------------------------------------|
    |--7-7-7-7-7-6-9-9-9-9-9-9-9-9-9-9---8-8-8-8-8-8---|
    |--------------------------------------------------|
    
    |-----------------------------------------------|
    |-----------------------------------------------|
    |--9-9-9-8-8-8-111111111111111111-101010101010--|
    |-----------------------------------------------|
    |--7-7-7-6-6-6-9-9-9-9-9-9-9-9-9--8-8-8-8-8-8---|
    |-----------------------------------------------|
     

    Тональность:

    Нет текста!



    Назад
    Рекомендуем посмотреть другие песни исполнителя «Hoobastank»:

    • Комментарии Facebook ()
    • Комментарии ВКонтакте



    Добавить в Избранное Браузера
    Сохранить здесь Очистить


    x

    0


    +
    -

    +
    -

    -

    Авторизация





    Зарегистрироваться

    M

    Дата и время

    • 03:17:37
       

    Социальные ссылки


    Наши приложения

    • Muzbank App Play Market
    • Muzbank Amazon App