MUZBANK



A Most Complete Bank Of Music Information

МУЗЫКАЛЬНО-ИНФОРМАЦИОННЫЙ БАНК

Поиск по сайту







    HHoobastank • Up And Gone (аккорды и текст - chords & lyrics)


    183

    Print

    Видео «Up And Gone (Hoobastank)»

    Видео клипы к песне подбираются автоматически сайтом youtube. Возможны некоторые несоответствия клипов песне.

    ↑ Спрятать рекламу ↑



    Download



     
    
    
    Band: Hoobastank
    Song: Up and Gone
    CD: Hoobastank
    intro/verse
    G||-------------11---------9----------13---------|
    D||----11----11----11---11----11---11-----11---11|
    A||-9-----9-----------9---------9-----------9----|X2 then
    E||----------------------------------------------|
    
    G||------------9----------7---------11-------|
    D||----9----9----9------9----9---9-----9---9-|
    A||-7-----7-----------7--------7---------7---|
    E||------------------------------------------|
    
    G||----------5---------------3----|
    D||----7---7---7---7---5---5-----5|
    A||-5----5-------5---3---3-----3--|
    E||-------------------------------|
    
    
    chrous and hard parts
    G||--------------------------|
    D||----------------------(2)-|
    A||--------------------------|X2
    E||-0h2-2-0-2--0h2-2-0-2-(0)-|
    
    G||-----------------------------------|
    D||-----------------------------------|
    A||----(7)-(7)------------------------|
    E||-0-0-0-0-0-0-0-0h5-5-5-5/-8-8-8-8--|
    
    part before last chorus and all that
    
    G||------------|
    D||------------|
    A||---4---4---4|do a few times i guess
    E||-4---4---4--|
     

    Тональность:

    Нет текста!



    Назад
    Рекомендуем посмотреть другие песни исполнителя «Hoobastank»:

    • Комментарии Facebook ()
    • Комментарии ВКонтакте



    Добавить в Избранное Браузера
    Сохранить здесь Очистить


    x

    0


    +
    -

    +
    -

    -

    Авторизация





    Зарегистрироваться

    M

    Дата и время

    • 17:42:08
       

    Социальные ссылки


    Наши приложения

    • Muzbank App Play Market
    • Muzbank Amazon App