MUZBANK



A Most Complete Bank Of Music Information

МУЗЫКАЛЬНО-ИНФОРМАЦИОННЫЙ БАНК

Поиск по сайту







    HHot Water Music • Driving Home (аккорды и текст - chords & lyrics)


    239

    Print

    Видео «Driving Home (Hot Water Music)»

    Видео клипы к песне подбираются автоматически сайтом youtube. Возможны некоторые несоответствия клипов песне.

    ↑ Спрятать рекламу ↑



    Download


     
    
    
    Artist: HOT WATER MUSIC
    Song: DRIVING HOME
    Album: NO DIVISION
    Tabbed by Marco F. 
    
    Standard Tuning E A D G
    Play with a pick.
    
    INTRO
    
    A 7--5-----3--2-----7--5--3  PLAY 2X
    E ------3--------3---------
    
    then play several times:
    
    A 5-5----7-7----2-2----3-3-3-2
    
    VERSE
    
    A 7-7-7-7-5-5-5-5------------------3-3-3-2-2-2   
    E ----------------3-3-3-3-3-3-3-3-------------
    						
    A 7-7-7-7-5-5-5-5-3-3-3-3-3-3-3-3 
    
    CHORUS
    
    D -----5------4~--------------------------
    A ------------------2~-----3-3-3-3-3-3 etc.  
    E 3-3------------------------------------
    
      Notice: ~ means bend string
    
    A 7-7-7-7-7-7-7-7-5-5-5-5-5-5-5-5-3-3-3-3-3-3-3-3
    
    BRIDGE
    
    A 5-5-5-5 etc. 3-3-3-3 etc. 5-5-5-5 etc.------------
    E ---------------------------------------3-3-3-3 etc.
     

    Тональность:

    Нет текста!



    Назад
    Рекомендуем посмотреть другие песни исполнителя «Hot Water Music»:

    • Комментарии Facebook ()
    • Комментарии ВКонтакте



    Добавить в Избранное Браузера
    Сохранить здесь Очистить


    x

    0


    +
    -

    +
    -

    -

    Авторизация





    Зарегистрироваться

    M

    Дата и время

    • 17:18:30
       

    Социальные ссылки


    Наши приложения

    • Muzbank App Play Market
    • Muzbank Amazon App