MUZBANK



A Most Complete Bank Of Music Information

МУЗЫКАЛЬНО-ИНФОРМАЦИОННЫЙ БАНК

Поиск по сайту







    HHundred Reasons • Stories With Unhappy Endings (аккорды и текст - chords & lyrics)


    234

    Print

    Видео «Stories With Unhappy Endings (Hundred Reasons)»

    Видео клипы к песне подбираются автоматически сайтом youtube. Возможны некоторые несоответствия клипов песне.

    ↑ Спрятать рекламу ↑



    Download


     
    
    
    Artist: Hundred Reasons
    Title: Stories With Unhappy Endings
    tabbed by matt
    
    Drop D tuning: DADGBe
    
    |-------------------|
    |-------------------|
    |------------12-12--|
    |----------x--------|
    |-10-10-10----------|
    |-------------------|x2
    
    |-------------------|
    |-------------------|
    |-----------10-10---|
    |--------x----------|
    |-8-8-8-------------|
    |-------------------|x2
    
    X4
    
    Then....
    Play each note alot of times
    |---------------15----|
    |---------13----------|
    |--12-----------------|
    |---------------------|
    |---------------------|
    |---------------------|
    
    
    Verse:
    |-------------------|
    |-------------------|
    |-------------------|
    |-------------------|
    |---2/3-3-----------|
    |---2/3-3-----------|
    
    
    Chorus:
    |-------------------|
    |-------------------|
    |-------------------|
    |-------------------|
    |--10----3----5-----|
    |--10----3----5-----|
    
    
    back to intro riff, then the bit after
    
    
    Verse
    Chorus
    Solo:
    |------------------------------|
    |------------------------------|
    |------------------------------|
    |-8-10-x-10-13-10--8-10-x-10---|
    |------------------------------|
    |------------------------------|
    
    |------------------------------|
    |------------------------------|
    |-----------8------------------|
    |-8-x-10-10---10-9-8-5-5-------|
    |------------------------------|
    |------------------------------|
    
    End on F
    
    |------|
    |------|
    |------|
    |---3--|
    |---3--|
    |---3--|
     

    Тональность:

    Нет текста!



    Назад
    Рекомендуем посмотреть другие песни исполнителя «Hundred Reasons»:

    • Комментарии Facebook ()
    • Комментарии ВКонтакте



    Добавить в Избранное Браузера
    Сохранить здесь Очистить


    x

    0


    +
    -

    +
    -

    -

    Авторизация





    Зарегистрироваться

    M

    Дата и время

    • 17:38:39
       

    Социальные ссылки


    Наши приложения

    • Muzbank App Play Market
    • Muzbank Amazon App