MUZBANK



A Most Complete Bank Of Music Information

МУЗЫКАЛЬНО-ИНФОРМАЦИОННЫЙ БАНК

Поиск по сайту







    HHypocrisy • Eraser (аккорды и текст - chords & lyrics)


    579

    Print

    Видео «Eraser (Hypocrisy)»

    Видео клипы к песне подбираются автоматически сайтом youtube. Возможны некоторые несоответствия клипов песне.

    ↑ Спрятать рекламу ↑



    Download


    [Guitar 1 & Guitar 2: Tuned down to B]
    
    Here it comes to subject the terror you forgot
    No memories from the past
    The unexplainable starts to appear
    As your sub-consciousness begins to come back again
    
    Reality fades away
    You try to find a solution
    Here it's coming now, indecision
    You're free but you can't see through the confusion
    
    [Припев]
    There is no time
    No time to regret
    The eraser's coming for your life
    You got to run
    Stay away from the light
    The eraser's here to twist your mind
    
    Feel your soul connected to the universe
    The solstice is complete
    They controlled your thoughts
    You will remember now, what it's all about
    
    Twist the end around, violation
    It's burning deep and twisting under your skin
    It scares you forever
    The proof you will find in your dreams
    
    
    
    ~ Clean Guitar 1 ~
       /Intro/
    B ||---------------------------------|----------------------------------------|
    F#||---------------------------------|----------------------------------------|
    D ||------------------0-----------0--|--------------------------0--------0----|
    A ||---------------2-----------2-----|-----------------------2--------2-------|
    E ||------------2-----------2--------|--------------------2--------3----------|
    B ||--0------------------0-----------|--0-------------------------------------|
    
     
    --------------------------|-------------------------|--------------------------|
    --------------------------|-------------------------|--------------------------|
    -----------0-----------0--|-----------0-----0-------|-----------0-----------0--|
    --------2-----------2-----|--------2----------------|--------2-----------2-----|
    -----2-----------2--------|-----2--------3-----2----|-----2-----------2--------|
    --0-----------0-----------|--0----------------------|--0-----------0-----------|
    
     
    -------------------------|--------------------------|-------------------------|
    -------------------------|--------------------------|-------------------------|
    -----------0--------0----|-----------0-----------0--|-----------0-----0-------|
    --------2--------2-------|--------2-----------2-----|--------2----------------|
    -----2--------3----------|-----2-----------2--------|-----2--------3-----2----|
    --0----------------------|--0-----------0-----------|--0----------------------|
    
    
    
    
    ~ Clean Guitar 2 (7 strings) ~
       /Intro/  
    E||------------------------|-------------------------|------------------------|
    B||------------------------|-------------------------|------------------------|
    G||------------------------|-------------------------|------------------------|
    D||-----------0~--L--------|-----------0-------------|-----------0~--L--------|
    A||--------2---------------|--------2-----4--5--1----|--------2---------------|
    E||-----2------------------|-----2-------------------|-----2------------------|
    B||--0---------------------|--0----------------------|--0---------------------|
    
    
    -------------------------|------------------------|-------------------------|
    -------------------------|------------------------|-------------------------|
    -------------------------|------------------------|-------------------------|
    -----------0-------------|-----------0~--L--------|-----------0-------------|
    --------2-----4--5-------|--------2---------------|--------2-----4--5--1----|
    -----2--------------2----|-----2------------------|-----2-------------------|
    --0----------------------|--0---------------------|--0----------------------|
    
                             
    ------------------------|-------------------------|-------|-------|-------|
    ------------------------|-------------------------|-------|-------|-------|
    ------------------------|-------------------------|-------|-------|-------|
    -----------0~--L--------|-----------0-------------|-------|-------|-------|
    --------2---------------|--------2-----4--5-------|-------|-------|-------|
    -----2------------------|-----2--------------2----|-------|-------|-------|
    --0---------------------|--0----------------------|-------|-------|-------|
    
    
    
    ~ Distortion Guitar 1 ~
                              /verse/
    -------------------------|-------------------|-------------------|
    -------------------------|-------------------|-------------------|
    -----------5-5----4-4----|-------------------|-------------------|
    -----------5-5----4-4----|--2----------------|--L----------------|
    -----------3-3----2-2----|--2----------------|--L----------------|
    -------------------------|--0----------------|--L----------------|
    
                   
    -------------------|-------------------|-------------------|-------------------|
    -------------------|-------------------|-------------------|-------------------|
    -------------------|-------------------|-------------------|-------------------|
    --L----------------|--L----------------|--2----------------|--L----------------|
    --L----------------|--L----------------|--2----------------|--L----------------|
    --L----------------|--L----------------|--0----------------|--L----------------|
    
              
    -------------------|-------------------------|-------------------|
    -------------------|-------------------------|-------------------|
    -------------------|-----------5-5----4-4----|-------------------|
    --L----------------|--L--------5-5----4-4----|--2----------------|
    --L----------------|--L--------3-3----2-2----|--2----------------|
    --L----------------|--L----------------------|--0----------------|
    
        
    --------------------|-------------------|---------------------|
    --------------------|-------------------|---------------------|
    -----------5--------|-------------------|-----------5----4----|
    --L--------5--------|--2----------------|--L--------5----4----|
    --L--------3--------|--2----------------|--L--------3----2----|
    --L-----------------|--0----------------|--L------------------|
    
         
    -------------------|--------------------|-------------------|
    -------------------|--------------------|-------------------|
    -------------------|-----------5--------|-------------------|
    --2----------------|--L--------5--------|--2----------------|
    --2----------------|--L--------3--------|--2----------------|
    --0----------------|--L-----------------|--0----------------|
    
           
    ---------------------|-------------------|--------------------|
    ---------------------|-------------------|--------------------|
    -----------5----4----|-------------------|-----------5--------|
    --L--------5----4----|--2----------------|--L--------5--------|
    --L--------3----2----|--2----------------|--L--------3--------|
    --L------------------|--0----------------|--L-----------------|
    
                  
    -------------------|---------------------|-------------------|
    -------------------|---------------------|-------------------|
    -------------------|-----------5----4----|-------------------|
    --2----------------|--L--------5----4----|--2----------------|
    --2----------------|--L--------3----2----|--2----------------|
    --0----------------|--L------------------|--0----------------|
    
      
    --------------------|-------------------|---------------------|
    --------------------|-------------------|---------------------|
    -----------5--------|-------------------|-----------5----4----|
    --L--------5--------|--2----------------|--L--------5----4----|
    --L--------3--------|--2----------------|--L--------3----2----|
    --L-----------------|--0----------------|--L------------------|
    
    
    /pre-chorus/
    ---------------------------------|--------------------------------|
    ---------------------------------|--------------------------------|
    --8-8-8-8----8-8-8-8----8-8-8S-L-|--------------------------------|
    --8-8-8-8----8-8-8-8----8-8-8S-L-|--5-5-5-5----5-5-5-5----5-5-5S--|
    --6-6-6-6----6-6-6-6----6-6-6S-L-|--5-5-5-5----5-5-5-5----5-5-5S--|
    ---------------------------------|--3-3-3-3----3-3-3-3----3-3-3S--|
    
    
    --------------------------------|--------------------------------|
    --------------------------------|--------------------------------|
    --------------------------------|--5-5-5-5----5-5-5-5----7-7-7-7-|
    --7-7-7-7----7-7-7-7----7-7-7-7-|--5-5-5-5----5-5-5-5----7-7-7-7-|
    --7-7-7-7----7-7-7-7----7-7-7-7-|--3-3-3-3----3-3-3-3----5-5-5-5-|
    --5-5-5-5----5-5-5-5----5-5-5-5-|--------------------------------|
    
    
    ---------------------------------|--------------------------------|
    ---------------------------------|--------------------------------|
    --8-8-8-8----8-8-8-8----8-8-8S-L-|--------------------------------|
    --8-8-8-8----8-8-8-8----8-8-8S-L-|--5-5-5-5----5-5-5-5----5-5-5S--|
    --6-6-6-6----6-6-6-6----6-6-6S-L-|--5-5-5-5----5-5-5-5----5-5-5S--|
    ---------------------------------|--3-3-3-3----3-3-3-3----3-3-3S--|
    
         
    --------------------------------|--------------------------------|----|
    --------------------------------|--------------------------------|----|
    --------------------------------|--5-5-5-5----5-5-5-5----7-7-7-7-|----|
    --7-7-7-7----7-7-7-7----7-7-7-7-|--5-5-5-5----5-5-5-5----7-7-7-7-|----|
    --7-7-7-7----7-7-7-7----7-7-7-7-|--3-3-3-3----3-3-3-3----5-5-5-5-|----|
    --5-5-5-5----5-5-5-5----5-5-5-5-|--------------------------------|----|
    
    
    /chorus solo/
     
    --12-0-0-10-0-0-8-0-7-0-0-8-0-0-10-0-|--12-0-0-10-0-0-8-0-7-0-0-8-0-0-10-0-|
    -------------------------------------|-------------------------------------|
    -------------------------------------|-------------------------------------|
    -------------------------------------|-------------------------------------|
    -------------------------------------|-------------------------------------|
    -------------------------------------|-------------------------------------|
    
    
    --12-0-0-10-0-0-8-0-7-0-0-8-0-0-10-0-|--5-0-0-7-0-0-8-0-7-0-0-8-0-0-7-0-|
    -------------------------------------|----------------------------------|
    -------------------------------------|----------------------------------|
    -------------------------------------|----------------------------------|
    -------------------------------------|----------------------------------|
    -------------------------------------|----------------------------------|
    
    
    --12-0-0-10-0-0-8-0-7-0-0-8-0-0-10-0-|--12-0-0-10-0-0-8-0-7-0-0-8-0-0-10-0-|
    -------------------------------------|-------------------------------------|
    -------------------------------------|-------------------------------------|
    -------------------------------------|-------------------------------------|
    -------------------------------------|-------------------------------------|
    -------------------------------------|-------------------------------------|
    
          
    --12-0-0-10-0-0-8-0-7-0-0-8-0-0-10-0-|--5-0-0-7-0-0-8-0-7-0-0-8-0-0-7-0-|----|
    -------------------------------------|----------------------------------|----|
    -------------------------------------|----------------------------------|----|
    -------------------------------------|----------------------------------|----|
    -------------------------------------|----------------------------------|----|
    -------------------------------------|----------------------------------|----|
    
    
    
    
    
    
    ~ Distortion Guitar 2 (7 strings) ~
                             /verse/
    -------------------------|-------------------------|
    -------------------------|-------------------------|
    -------------------------|-------------------------|
    -----------5-5----4-4----|--------9--12~--L--------|
    -----------5-5----4-4----|-----9-------------------|
    -----------3-3----2-2----|-------------------------|
    -------------------------|--0----------------------|
    
       
    ----------------------------|-------------------------|
    ----------------------------|-------------------------|
    ----------------------------|-------------------------|
    --------9--12--11--12--8----|--------9--12~--L--------|
    -----9----------------------|-----9-------------------|
    ----------------------------|-------------------------|
    --0-------------------------|--0----------------------|
    
        
    ----------------------------|-------------------------|
    ----------------------------|-------------------------|
    ----------------------------|-------------------------|
    --------9--12--11--12-------|--------9--12~--L--------|
    -----9-----------------9----|-----9-------------------|
    ----------------------------|-------------------------|
    --0-------------------------|--0----------------------|
    
          
    ----------------------------|-------------------------|
    ----------------------------|-------------------------|
    ----------------------------|-------------------------|
    --------9--12--11--12--8----|--------9--12~--L--------|
    -----9----------------------|-----9-------------------|
    ----------------------------|-------------------------|
    --0-------------------------|--0----------------------|
    
          
    ----------------------------|-------------------------|
    ----------------------------|-------------------------|
    ----------------------------|-------------------------|
    --------9--12--11--12-------|--------9--12~--L--------|
    -----9-----------------9----|-----9-------------------|
    ----------------------------|-------------------------|
    --0-------------------------|--0----------------------|
    
          
    ----------------------------|-------------------------|
    ----------------------------|-------------------------|
    ----------------------------|-------------------------|
    --------9--12--11--12--8----|--------9--12~--L--------|
    -----9----------------------|-----9-------------------|
    ----------------------------|-------------------------|
    --0-------------------------|--0----------------------|
    
          
    ----------------------------|-------------------------|
    ----------------------------|-------------------------|
    ----------------------------|-------------------------|
    --------9--12--11--12-------|--------9--12~--L--------|
    -----9-----------------9----|-----9-------------------|
    ----------------------------|-------------------------|
    --0-------------------------|--0----------------------|
    
         
    ----------------------------|-------------------------|
    ----------------------------|-------------------------|
    ----------------------------|-------------------------|
    --------9--12--11--12--8----|--------9--12~--L--------|
    -----9----------------------|-----9-------------------|
    ----------------------------|-------------------------|
    --0-------------------------|--0----------------------|
    
    
          
    -------------------------------|-------------------------|
    -------------------------------|-------------------------|
    -------------------------------|-------------------------|
    --------9--12--14--12--11--12--|--------9--12~--L--------|
    -----9-------------------------|-----9-------------------|
    -------------------------------|-------------------------|
    --0----------------------------|--0----------------------|
    
    
        
    ----------------------------|-------------------------|
    ----------------------------|-------------------------|
    ----------------------------|-------------------------|
    --------9--12--11--12--8----|--------9--12~--L--------|
    -----9----------------------|-----9-------------------|
    ----------------------------|-------------------------|
    --0-------------------------|--0----------------------|
    
    
         
    ----------------------------|-------------------------|
    ----------------------------|-------------------------|
    ----------------------------|-------------------------|
    --------9--12--11--12-------|--------9--12~--L--------|
    -----9-----------------9----|-----9-------------------|
    ----------------------------|-------------------------|
    --0-------------------------|--0----------------------|
    
    
    ----------------------------|-------------------------|
    ----------------------------|-------------------------|
    ----------------------------|-------------------------|
    --------9--12--11--12--8----|--------9--12~--L--------|
    -----9----------------------|-----9-------------------|
    ----------------------------|-------------------------|
    --0-------------------------|--0----------------------|
    
    
                                   /pre-chorus/
    -------------------------------|--------------------------------|
    -------------------------------|--------------------------------|
    -------------------------------|--------------------------------|
    --------9--12--14--12--11--12--|--8-8-8-8----8-8-8-8----8-8-8S--|
    -----9-------------------------|--------------------------------|
    -------------------------------|--6-6-6-6----6-6-6-6----6-6-6S--|
    --0----------------------------|--------------------------------|
    
    
    
    -------------------------------|--------------------------------|
    -------------------------------|--------------------------------|
    -------------------------------|--------------------------------|
    --7-7-7-7----7-7-7-7----7-7-7--|--5-5-5-5----5-5-5-5----5-5-5-5-|
    -------------------------------|--7-7-7-7----7-7-7-7----7-7-7-7-|
    --5-5-5-5----5-5-5-5----5-5-5--|--------------------------------|
    -------------------------------|--------------------------------|
    
    
     
    --------------------------------|--------------------------------|
    --------------------------------|--------------------------------|
    --7-7-7-7----7-7-7-7------------|--------------------------------|
    --5-5-5-5----5-5-5-5----7-7-7-7-|--8-8-8-8----8-8-8-8----8-8-8S--|
    --------------------------------|--------------------------------|
    ------------------------5-5-5-5-|--6-6-6-6----6-6-6-6----6-6-6S--|
    --------------------------------|--------------------------------|
    
    
    
    -------------------------------|--------------------------------|
    -------------------------------|--------------------------------|
    -------------------------------|--------------------------------|
    --7-7-7-7----7-7-7-7----7-7-7--|--5-5-5-5----5-5-5-5----5-5-5-5-|
    -------------------------------|--7-7-7-7----7-7-7-7----7-7-7-7-|
    --5-5-5-5----5-5-5-5----5-5-5--|--------------------------------|
    -------------------------------|--------------------------------|
    
                                            /chorus/
    --------------------------------|----|----------------------------------|
    --------------------------------|----|----------------------------------|
    --7-7-7-7----7-7-7-7------------|----|----------------------------------|
    --5-5-5-5----5-5-5-5----7-7-7-7-|----|------------------5-5-5-5-5-5-5-5-|
    --------------------------------|----|--2-2-2-2-2-2-2-2-5-5-5-5-5-5-5-5-|
    ------------------------5-5-5-5-|----|--2-2-2-2-2-2-2-2-3-3-3-3-3-3-3-3-|
    --------------------------------|----|--0-0-0-0-0-0-0-0-----------------|
    
    
    ----------------------------------|----------------------------------|
    ----------------------------------|----------------------------------|
    ----------------------------------|----------------------------------|
    --2-2-2-2-2-2-2-2-5-5-5-5-5-5-5-5-|----------------------------------|
    --2-2-2-2-2-2-2-2-5-5-5-5-5-5-5-5-|--2-2-2-2-2-2-2-2-5-5-5-5-5-5-5-5-|
    --0-0-0-0-0-0-0-0-3-3-3-3-3-3-3-3-|--2-2-2-2-2-2-2-2-5-5-5-5-5-5-5-5-|
    ----------------------------------|--0-0-0-0-0-0-0-0-3-3-3-3-3-3-3-3-|
    
    
    ----------------------------------|----------------------------------|
    ----------------------------------|----------------------------------|
    ----------------------------------|----------------------------------|
    --2-2-2-2-2-2-2-2-5-5-5-5-5-5-5-5-|------------------5-5-5-5-5-5-5-5-|
    --2-2-2-2-2-2-2-2-5-5-5-5-5-5-5-5-|--2-2-2-2-2-2-2-2-5-5-5-5-5-5-5-5-|
    --0-0-0-0-0-0-0-0-3-3-3-3-3-3-3-3-|--2-2-2-2-2-2-2-2-3-3-3-3-3-3-3-3-|
    ----------------------------------|--0-0-0-0-0-0-0-0-----------------|
    
    
    ----------------------------------|----------------------------------|
    ----------------------------------|----------------------------------|
    ----------------------------------|----------------------------------|
    --2-2-2-2-2-2-2-2-5-5-5-5-5-5-5-5-|----------------------------------|
    --2-2-2-2-2-2-2-2-5-5-5-5-5-5-5-5-|--2-2-2-2-2-2-2-2-5-5-5-5-5-5-5-5-|
    --0-0-0-0-0-0-0-0-3-3-3-3-3-3-3-3-|--2-2-2-2-2-2-2-2-5-5-5-5-5-5-5-5-|
    ----------------------------------|--0-0-0-0-0-0-0-0-3-3-3-3-3-3-3-3-|
    
      
    ----------------------------------|-------------------------|
    ----------------------------------|-------------------------|
    ----------------------------------|-------------------------|
    --2-2-2-2-2-2-2-2-5-5-5-5-5-5-5-5-|--------9--12~--L--------|
    --2-2-2-2-2-2-2-2-5-5-5-5-5-5-5-5-|-----9-------------------|
    --0-0-0-0-0-0-0-0-3-3-3-3-3-3-3-3-|-------------------------|
    ----------------------------------|--0----------------------|
    
    
    
    
    ~ Chorus in standart rhythm guitar (E-tuning) ~ 
    
    ----------------------------------|----------------------------------|
    ----------------------------------|----------------------------------|
    ----------------------------------|----------------------------------|
    ------------------5-5-5-5-5-5-5-5-|--2-2-2-2-2-2-2-2-5-5-5-5-5-5-5-5-|
    --2-2-2-2-2-2-2-2-5-5-5-5-5-5-5-5-|--2-2-2-2-2-2-2-2-5-5-5-5-5-5-5-5-|
    --2-2-2-2-2-2-2-2-3-3-3-3-3-3-3-3-|--0-0-0-0-0-0-0-0-3-3-3-3-3-3-3-3-|
    
    
    ----------------------------------|----------------------------------|
    ----------------------------------|----------------------------------|
    ----------------------------------|----------------------------------|
    ------------------0-0-0-0-0-0-0-0-|--2-2-2-2-2-2-2-2-5-5-5-5-5-5-5-5-|
    --2-2-2-2-2-2-2-2-0-0-0-0-0-0-0-0-|--2-2-2-2-2-2-2-2-5-5-5-5-5-5-5-5-|
    --2-2-2-2-2-2-2-2-----------------|--0-0-0-0-0-0-0-0-3-3-3-3-3-3-3-3-|
    
    
    ----------------------------------|----------------------------------|
    ----------------------------------|----------------------------------|
    ----------------------------------|----------------------------------|
    ------------------5-5-5-5-5-5-5-5-|--2-2-2-2-2-2-2-2-5-5-5-5-5-5-5-5-|
    --2-2-2-2-2-2-2-2-5-5-5-5-5-5-5-5-|--2-2-2-2-2-2-2-2-5-5-5-5-5-5-5-5-|
    --2-2-2-2-2-2-2-2-3-3-3-3-3-3-3-3-|--0-0-0-0-0-0-0-0-3-3-3-3-3-3-3-3-|
    
    
    ----------------------------------|----------------------------------|
    ----------------------------------|----------------------------------|
    ----------------------------------|----------------------------------|
    ------------------0-0-0-0-0-0-0-0-|--2-2-2-2-2-2-2-2-5-5-5-5-5-5-5-5-|
    --2-2-2-2-2-2-2-2-0-0-0-0-0-0-0-0-|--2-2-2-2-2-2-2-2-5-5-5-5-5-5-5-5-|
    --2-2-2-2-2-2-2-2-----------------|--0-0-0-0-0-0-0-0-3-3-3-3-3-3-3-3-|
    
    
    
    
    
    
    
    
    
     ~ Solo part (guitar 2 with 7 strings) ~
    
    ----------------------------------|---------------------------------------|
    ----------------------------------|---------------------------------------|
    ----------------------------------|-------7-11---------7-11----11-9-------|
    --2-2-2-2-2-2-2-2-5-5-5-5-5-5-5-5-|--9-11---------9-11--------------12-11-|
    --2-2-2-2-2-2-2-2-5-5-5-5-5-5-5-5-|---------------------------------------|
    --0-0-0-0-0-0-0-0-3-3-3-3-3-3-3-3-|---------------------------------------|
    ----------------------------------|---------------------------------------|
    
    
    ----------------------------------|----------------------------------|
    ----7-5-7---7-5-7---7-5-7-7-5-----|----------------------------------|
    --4-------4-------4-----------7-6-|----7-6-7---7-6-7---7-6-7-------6-|
    ----------------------------------|--5-------5-------5-------5-7-9---|
    ----------------------------------|----------------------------------|
    ----------------------------------|----------------------------------|
    ----------------------------------|----------------------------------|
    
    
       |--3--|  |--3--| |-3-| |-3-| |-3-| |-3-| |-3-| |-3-|  
    --------------------------------------------------------|
    --------------------------------------------------------|
    --11-11-11-11-11-11-9-9-9-9-9-9-7-7-7-7-7-7-6-6-6-6-6-6-|
    --------------------------------------------------------|
    --------------------------------------------------------|
    --------------------------------------------------------|
    --------------------------------------------------------|
    
    
    --------------------------|--------------------7-5-----|
    -----7----5----7--8-7-----|-----10----8----10------8-7-|
    ----------------------9-7-|--4-------------------------|
    --5-----------------------|----------------------------|
    --------------------------|----------------------------|
    --------------------------|----------------------------|
    --------------------------|----------------------------|
    
         
    ------------------------|-------------------------|-------------------------|
    -----7----5----7~----L--|-----7----7b----7~----L--|-------------------------|
    ------------------------|-------------------------|-------------------------|
    --2---------------------|--5----------------------|--------9--12~--L--------|
    ------------------------|-------------------------|-----9-------------------|
    ------------------------|-------------------------|-------------------------|
    ------------------------|-------------------------|--0----------------------|
    
    
    ----------------------------|-------------------------|
    ----------------------------|-------------------------|
    ----------------------------|-------------------------|
    --------9--12--11--12--8----|--------9--12~--L--------|
    -----9----------------------|-----9-------------------|
    ----------------------------|-------------------------|
    --0-------------------------|--0----------------------|
    
    
    ----------------------------|-------------------------|
    ----------------------------|-------------------------|
    ----------------------------|-------------------------|
    --------9--12--11--12-------|--------9--12~--L--------|
    -----9-----------------9----|-----9-------------------|
    ----------------------------|-------------------------|
    --0-------------------------|--0----------------------|
    
    
    ----------------------------|-------------------------|------------------------|
    ----------------------------|-------------------------|------------------------|
    ----------------------------|-------------------------|------------------------|
    --------9--12--11--12--8----|--------9--12~--L--------|--------9--12-----------|
    -----9----------------------|-----9-------------------|-----9------------------|
    ----------------------------|-------------------------|------------------------|
    --0-------------------------|--0----------------------|--0---------------------|

    Тональность:

    Нет текста!



    Назад
    Рекомендуем посмотреть другие песни исполнителя «Hypocrisy»:

    • Комментарии Facebook ()
    • Комментарии ВКонтакте



    Добавить в Избранное Браузера
    Сохранить здесь Очистить


    x

    0


    +
    -

    +
    -

    -

    Авторизация





    Зарегистрироваться

    M

    Дата и время

    • 04:59:47
       

    Социальные ссылки


    Наши приложения

    • Muzbank App Play Market
    • Muzbank Amazon App