MUZBANK



A Most Complete Bank Of Music Information

МУЗЫКАЛЬНО-ИНФОРМАЦИОННЫЙ БАНК

Поиск по сайту







    II Mother Earth • Raspberry (аккорды и текст - chords & lyrics)


    252

    Print

    Видео «Raspberry (I Mother Earth)»

    Видео клипы к песне подбираются автоматически сайтом youtube. Возможны некоторые несоответствия клипов песне.

    ↑ Спрятать рекламу ↑



    Download


     
    
    
    @@@Raspberry@@@
    by I Mother Earth from Scenery and Fish
    
    tabbed by Craig Knowles 
    
    (notation the same as One More Astronaut)
    
    Part 1 
    e-------------------------------------------------|
    b-------------------------------------------------|
    G-9/11-11-x-11---11-11-11-114---4-4-4-4/6-6-x-4--|
    D-x-x---x-x--x----x--x--x--x-x---x-x-x-x-x-x-x-x--|
    A-7/9---9-x--9----9--9--9--92---2-2-2-2/4-4-x-2--|
    E-------------------------------------------------|
                                          
    Part 2
    e---------------------------------------------------------------------|
    b---------------------------------------------------------------------|
    G-9/11-11-x-11--11-11-11-11/13-13-13-13--14-14-14--13-13-13---9--9--9-|
    D-x-x---x-x--x---x--x--x--x--x--x--x--x---x--x--x---x--x--x---x--x--x-|
    A-7/9---9-x--9---9--9--9--9/11-11-11-11--12-12-12--11-11-11--11-11-11-|
    E---------------------------------------------------------------------|
    
    Part 3
    e----------------------------|
    b----------------------------|
    G-9/11-11-x-11--11-11-11-13--|
    D-x-x---x-x--x---x--x--x--x--|
    A-7/9---9-x--9---9--9--9-11--|
    E----------------------------|
    
    Part 4
    e----|-----------------------------------------------------|
    b----|-----------------------------------------------------| 
    G-11/|13--13-13-14-13--13-13--13-13--13-13-19--13-13-14-13-|  
    D--x/|-x---x--x--x--x---x--x---x--x---x--x--x---x--x--x--x-|  
    A--9/|11--11-11-12-11--11-11--11-11--11-11-17--11-11-12-11-| 
    E----|-----------------------------------------------------| 
       **-second time, do slide part-**	   
    
    Fill
    e---------------------------|
    b---------------------------|
    G-6-6-7-7--7-7/9-9-9-9--9x-|
    D-6-6-7-7--7-7/9-9-9-9--9x-|
    A-4-4-5-5--5-5/7-7-7-7--7x-|
    E--------------------------=|
    
    Part 5
    e-----------------------------------------------------|
    b-----------------------------------------------------|
    G-9-9--7-7--6----6--6-6-------------------------------|
    D-9-9--7-7--6----6--6-6---7--7-7--7-7--9--9-9--9-9-9--| repeat 2x
    A-7-7--5-5--4----4--4-4-0-7--7-7--7-7--9--9-9--9-9-9--|
    E--------------0----------4--4-4--5-5--7--7-7--7-7-7--|
    
    e---------------------|---|---|--------------------------|
    b---------------------|---|---|--------------------------|
    G---------------------|---|---|-13-13/14-14-13-11/13-11--| 
    D-6/7-6-4----4-4/5-4--|---|-3-|--x--x--x--x--x--x-----x--|
    A-6/7-6-4----4-4/5-4--|---|-3-|-11-11/12-12-11--9/11--9--|
    E-4/5-4-2----2-2/3-2--|(0)|-1-|--------------------------| 
                              |   |
                   endings: 1 | 2 |  3
    
    Song Order
    (Part 1 - Part 2) repeat 2x
     Part 1 - Part 3
     Part 4 - repeat 4x
     Fill
     Part 5 - with ending 1
    
    (Part 1 - Part 2) repeat 2x
     Part 1 - Part 3
     Part 4 - repeat 4x
     Fill
     Part 5 - with ending 2
    
     interlude
    
     Part 4 - repeat 4x
     Fill
     Part 5 - with ending 3 then last part with ending 2
    
    Craig Knowles
    University of New Brunswick
     

    Тональность:

    Нет текста!



    Назад
    Рекомендуем посмотреть другие песни исполнителя «I Mother Earth»:

    • Комментарии Facebook ()
    • Комментарии ВКонтакте



    Добавить в Избранное Браузера
    Сохранить здесь Очистить


    x

    0


    +
    -

    +
    -

    -

    Авторизация





    Зарегистрироваться

    M

    Дата и время

    • 15:39:04
       

    Социальные ссылки


    Наши приложения

    • Muzbank App Play Market
    • Muzbank Amazon App