MUZBANK



A Most Complete Bank Of Music Information

МУЗЫКАЛЬНО-ИНФОРМАЦИОННЫЙ БАНК

Поиск по сайту







    IIced Earth • The Coming Curses (аккорды и текст - chords & lyrics)


    222

    Print

    Видео «The Coming Curses (Iced Earth)»

    Видео клипы к песне подбираются автоматически сайтом youtube. Возможны некоторые несоответствия клипов песне.

    ↑ Спрятать рекламу ↑



    Download


     
    
    Solo 1 - 2:10
    
    eb)|---------10~--------------------------------------------------------------------------------|
    Bb)|--/10-11-------------/10-11-13~-11-10-8~-7-8-10~-8~---7h8p7-----------------7-8p7-------7~--|
    Gb)|------------------------------------------------------------8-7~-------/7-8-------8-7-8-----|
    Db)|--------------------------------------------------------------------------------------------|
    Ab)|--------------------------------------------------------------------------------------------|
    Eb)|--------------------------------------------------------------------------------------------|
    
    eb)|------------------------10----------------------------------------------|
    Bb)|------7--7-8-7-8-10/11-----13-11-10h11p10-8h10p8-7-8-10~8~7h8p7---------|
    Gb)|--7-8--8--------------------------------------------------------8-7~----|
    Db)|------------------------------------------------------------------------|
    Ab)|------------------------------------------------------------------------|
    Eb)|------------------------------------------------------------------------|
    
    eb)|-----------------------10h11-10~-------------------------------------17h18-17~----|
    Bb)|-------7-8-10-8-7-------------------------15-16-18~-16h18p16p15-------------------|
    Gb)|--/7-8------------8~---------------/14-15-----------------------15~---------------|
    Db)|----------------------------------------------------------------------------------|
    Ab)|----------------------------------------------------------------------------------|
    Eb)|----------------------------------------------------------------------------------|
                                                       AH   AH   AH
    eb)|-----------------------------------------------12~--11~--12~----------------------|
    Bb)|----------------------------------------------------------------6~--5~------------|
    Gb)|--12p00-10p00-9p00-7p00--10p00-9p00-7p00-5p00-------------------------------------|
    Db)|----------------------------------------------------------------------------------|
    Ab)|----------------------------------------------------------------------------------|
    Eb)|----------------------------------------------------------------------------------|
    
    Lead - 3:17 
                                                                       AH  AH AH
    eb)|-------------------------------------------------------------------------------|
    Bb)|---------------------------------------------------------------10~-9~-10~------|
    Gb)|----9-10----9-10----9-10----9-10----9-10-----9-10----9-10----9-----------------|
    Db)|--7-------7-------7-------7-------7------7-7-------7-------7-------------------|
    Ab)|-------------------------------------------------------------------------------|
    Eb)|-------------------------------------------------------------------------------|
                                                                       AH  AH AH
    eb)|-------------------------------------------------------------------------------|
    Bb)|---------------------------------------------------------------10~-9~-10~------|
    Gb)|----9-10----9-10----9-10----9-10----9-10-----9-10----9-10----9-----------------|
    Db)|--7-------7-------7-------7-------7------7-7-------7-------7-------------------|
    Ab)|-------------------------------------------------------------------------------|
    Eb)|-------------------------------------------------------------------------------|
                                                                AH AH AH AH
    eb)|--------------------------------------------------------------------------|
    Bb)|--------------------------------------------------------8~-7~-------------|
    Gb)|----7-8----7-8----7-8----7-8----7-8-----7-8----7-8----7-------8~-7~-------|
    Db)|--5------5------5------5------5-----5-5------5------5---------------------|
    Ab)|--------------------------------------------------------------------------|
    Eb)|--------------------------------------------------------------------------|
                                                                AH AH AH AH
    eb)|--------------------------------------------------------------------------|
    Bb)|--------------------------------------------------------8~-7~-------------|
    Gb)|----7-8----7-8----7-8----7-8----7-8-----7-8----7-8----7-------8~-7~-------|
    Db)|--5------5------5------5------5-----5-5------5------5---------------------|
    Ab)|--------------------------------------------------------------------------|
    Eb)|--------------------------------------------------------------------------|
    
    
    Lead - 6:19
    
    
    eb)|---------------------------------------------------------------------------------------------|
    Bb)|------10~--------10~---9h10p9----9-----------------10~--------10~---9h10p9----9--------------|
    Gb)|--/7---------/7---------------10----10-9~------/7---------/7---------------10---10-9~--------|
    Db)|---------------------------------------------------------------------------------------------|
    Ab)|---------------------------------------------------------------------------------------------|
    Eb)|---------------------------------------------------------------------------------------------|
    
    eb)|------------------------------------------------------------------------------------|
    Bb)|------8~--------8~---7h8p7---7----------------8~---------8~---7h8p7---7-------------|
    Gb)|--/5--------/5-------------8----8-7~------/5---------/5-------------8---8-7~--------|
    Db)|------------------------------------------------------------------------------------|
    Ab)|------------------------------------------------------------------------------------|
    Eb)|------------------------------------------------------------------------------------|
    
    eb)|--------------------------------------------------------------------------------------------|
    Bb)|------10~--------10~--9h10p9----9-----------------10~--------10~---9h10p9----9--------------|
    Gb)|--/7---------/7--------------10----10-9~------/7---------/7---------------10---10-9~--------|
    Db)|--------------------------------------------------------------------------------------------|
    Ab)|--------------------------------------------------------------------------------------------|
    Eb)|--------------------------------------------------------------------------------------------|
    
    eb)|------------------------------------------------------------------------------------|
    Bb)|------8~--------8~---7h8p7---7----------------8~---------8~---7h8p7---7-------------|
    Gb)|--/5--------/5-------------8----8-7~------/5---------/5-------------8---8-7~--------|
    Db)|------------------------------------------------------------------------------------|
    Ab)|------------------------------------------------------------------------------------|
    Eb)|------------------------------------------------------------------------------------|
     

    Тональность:

    Нет текста!



    Назад
    Рекомендуем посмотреть другие песни исполнителя «Iced Earth»:

    • Комментарии Facebook ()
    • Комментарии ВКонтакте



    Добавить в Избранное Браузера
    Сохранить здесь Очистить


    x

    0


    +
    -

    +
    -

    -

    Авторизация





    Зарегистрироваться

    M

    Дата и время

    • 10:56:33
       

    Социальные ссылки


    Наши приложения

    • Muzbank App Play Market
    • Muzbank Amazon App