MUZBANK



A Most Complete Bank Of Music Information

МУЗЫКАЛЬНО-ИНФОРМАЦИОННЫЙ БАНК

Поиск по сайту







    IIced Earth • Watching Over Me (аккорды и текст - chords & lyrics)


    261

    Print

    Видео «Watching Over Me (Iced Earth)»

    Видео клипы к песне подбираются автоматически сайтом youtube. Возможны некоторые несоответствия клипов песне.

    ↑ Спрятать рекламу ↑



    Download



     
    
    
    Artist: Iced Earth
    Title: Watching Over Me
    Album: Something Wicked This Way Comes
    Transcribed by: Costas TG
    Email: costastg@hotmail.com
    
    This is the studio version.At the live version (Alive In Athens) the bass
    is tuned a fret down (D#,G#,C#,F#)
    
    Intro - Verse (6x)
    G------------------------|
    D------------------------|
    A-----3------------------|
    E--0-----3--2--2-3-2-----|
    
    Chorus (4x)
    G-----------------------------------------|
    D-----------------------------------------|
    A-----------3-3-3-3-----------------------|
    E--0-0-0-0-----------3-3-3-3--2-2--3-2----|
    
    Repeat Verse (5x)
    
    Repeat Chorus (4x)
    
    Guitar Solo
    G-----------------------------------------|
    D-----------------------------------------|
    A-----------3-3-3-3-----------------------|
    E--0-0-0-0-----------3-3-3-3--2-2--3-2----|
    
    G-----------------------------------------|
    D-----------------------------------------|
    A-----------3-3-3-3-----------------------|
    E--0-0-0-0-----------3-3-3-3--2-2--3-2----|
    
    G--------------------------------------------------|
    D--------------------------------------------------|
    A--3-3~3~3-3---5-5~5~5-5---3-3~3~3-3---5-5~5~5-5---|
    E--------------------------------------------------|
    
    G--------------------------------------------------|
    D--------------------------------------------------|
    A--3-3~3~3-3---5-5~5~5-5---2-2~2~2-2---/X----------|
    E--------------------------------------------------|
    
    Repeat Chorus as many times as necessary (almost 12x)
    
    At the live version repeats Chorus (12x) and then ends with four E
    
    
       ~ = TRILL
      /X = SLIDE TO NOWHERE
    
    Any corrects, please, e-mail me.
     

    Тональность:

    Нет текста!



    Назад
    Рекомендуем посмотреть другие песни исполнителя «Iced Earth»:

    • Комментарии Facebook ()
    • Комментарии ВКонтакте



    Добавить в Избранное Браузера
    Сохранить здесь Очистить


    x

    0


    +
    -

    +
    -

    -

    Авторизация





    Зарегистрироваться

    M

    Дата и время

    • 23:31:42
       

    Социальные ссылки


    Наши приложения

    • Muzbank App Play Market
    • Muzbank Amazon App