MUZBANK



A Most Complete Bank Of Music Information

МУЗЫКАЛЬНО-ИНФОРМАЦИОННЫЙ БАНК

Поиск по сайту







    IImmortal • Triumph (аккорды и текст - chords & lyrics)


    246

    Print

    Видео «Triumph (Immortal)»

    Видео клипы к песне подбираются автоматически сайтом youtube. Возможны некоторые несоответствия клипов песне.

    ↑ Спрятать рекламу ↑



    Download


     
    
    
    
    Tablature Notation
    ------------------
    .  - palm mute                  /  - slide up to
      - slide down to              ~  - vibrato
    h  - hammer on                  b  - bend
    p  - pull off                   Suffixes for bend
    ph - pinch harmonic             f - full bend    h - half bend
    *  - see comment                r - release      t - tap bend
    X  - percussion mute            ~ - vibrato bend
    @  - slight palm mute           () - ghost note, sustained note
    
    Standard Tuning
    
    TRIUMPH
    
    (Drums)
    
    Intro                                              Pick slide
    |-----------------------------------------------------------|
    |-----------------------------------------------------------|
    |-----------------------------------------------------------|
    |-----------------------------------------------------------|
    |-3-2-----------------------------3-2-----------------------|
    |-1-0-000-000-000-000-000-000-000-1-0-000-000-000--x-------|
          ... ... ... ... ... ... ...     ... ... ...
    
    
    Riff 1
    |---------------------------------------------------------------|
    |---------------------------------------------------------------|
    |---------------------------------------------------------------|
    |-------------------------5544-------------------------6655-----|
    |-3-2---------------------3322-3-2---------------------4433-3-2-|
    |-1-0-000-000-000-000-000------1-0-000-000-000-000-000------1-0-|
          ... ... ... ... ...          ... ... ... ... ...
    
    
    Riff 2                         1tx
    |---------------------------------|
    |---------------------------------|
    |---------------------------------|
    |-7/8-----87-7/8-----7/8-85-5/7-|
    |---------------------------------|
    |-5/6-000-65-5/6-000-5/6-63-3/5-|
          ...         ...
    
    
    Riff 1 4tx
    
    
    Riff 3                                                         2tx
    |-----------------------------------------------------------------|
    |-----------------------------------------------------------------|
    |-----------------------------------------------------------------|
    |-7/8-----87-7/8-----7/8-85-5/7-7/8-----87-7/8-----7/8---------|
    |---------------------------------------------------------85-53-|
    |-5/6-000-65-5/6-000-5/6-63-3/5-5/6-000-65-5/6-000-5/6-63-31-|
          ...         ...                 ...         ...
    
    
    Riff 4
    |--------------------------------------------------|
    |--------------------------------------------------|
    |--------------------------------------------------|
    |---5-4------4-3-------54-------43------5-4------|
    |-2-3-2------2-1-------32-------21------3-2------|
    |-0-----0000-----00000-----00000-----0000-----0000-|
    |       ....     .....     .....     ....     ....
    |
    |
    |                         4tx
    |----------------------------|
    |----------------------------|
    |----------------------------|
    |--4-3--------54--------43-|
    |--2-1------4-32------3-21-|
    |------2222-2-----1111-1-----|
           ....       ....
    
    Riff 5
    |-----------------------------------------------------|
    |-----------------------------------------------------|
    |-----------------------------------------------------|
    |-----------------------------------------------------|
    |-2--7----5----4----7----5----4----54-2--7----5----4-|
    |-0--5-00-3-00-2-00-5-00-3-00-2-00-32-0--5-00-3-00-2-|
    |      ..   ..   ..   ..   ..   ..            ..   ..
    |
    |
    |1.-------------------|2.---------------|
    |---------------------|-----------------|
    |---------------------|-----------------|
    |-7/8-8-------11/1212-|-----------------|
    |---------------------|-----------------|
    |-5/6-6-------9/10-10-|-2-0---------2---|
    |-------0-000---------|-----3-2-3-2-0---|
            . ...           . . . . . .
    
    
    Riff 4 2tx
    
    
    Riff 6
    |-----------------------------------------------------|
    |-----------------------------------------------------|
    |-----------------------------------------------------|
    |-----------------------------------------------------|
    |-2--7----5----4----7----5----4----54-2--7----5----4-|
    |-0--5-00-3-00-2-00-5-00-3-00-2-00-32-0--5-00-3-00-2-|
    |      ..   ..   ..   ..   ..   ..            ..   ..
    |
    |
    |1&3.-----------------|2.-------------------|
    |---------------------|---------------------|
    |---------------------|---------------------|
    |-7/8-8-------11/1212-|-7/8-8-------85-5/8-|
    |---------------------|---------------------|
    |-5/6-6-------9/10-10-|-5/6-6-------63-3/6-|
    |-------0-000---------|-------0-000---------|
    |       . ...                 . ...
    |
    |
    |4.----------------------------|
    |------------------------------|
    |------------------------------|
    |------------------------------|
    |------------------------------|
    |-2-0---------2----2-0---------|
    |-----3-2-3-2-0--------3-2-3-2-|
      . . . . . .      . . . . . .
    
    
    Intro
    Riff 1 4tx
    Riff 2 1tx
    Riff 1 4tx
    Riff 3 2tx
    
    
    Riff 7 1&32.----------------------------|4.---------------------------|
    |---------|-----------------------------|-----------------------------|
    |---------|-----------------------------|-----------------------------|
    |---------|-----------------------------|-----------------------4a.h.-|
    |-----9-9-|-----------------------2a.h.-|-----------------------------|
    |-----7-7-|-5--5-5--55-3--3-3--33-------|-5--5-5--55-3--3-3--33-------|
    |-000-----|-3--3-3--33-1--1-1--11-------|-3--3-3--33-1--1-1--11-------|
    
    
    Riff 8               4tx
    |-----------------------|
    |-----------------------|
    |-----------------------|
    |-----------------------|
    |-5--5-5--55-8--8-8--88-|
    |-3--3-3--33-6--6-6--66-|
    
    
    Riff 9                  1.--------------------|2.----------------------|
    |-----------------------|---------------------|------------------------|
    |-----------------------|---------------------|------------------------|
    |-----------------------|-5-----5-----5-----5-|------------------------|
    |-----------------------|-5-----5-----5-----5-|-------------------5p4--|
    |-----------------------|---------------------|------------------------|
    |-3-333-6p3-3-3-333-6p3-|---333---333---333---|-2-222-2-222-2-222------|
      . ...     . . ...         ...   ...   ...     . ... . ... . ...
    
    
    Riff 9 3tx
    Riff 7 1tx
    Riff 8 4tx
    Riff 9 4tx
    Riff 4 4tx
    Riff 6 1tx
    End on E5.
    
    
    It's a dark time
    Darker than all days before
    Darker that all years before
    It's a cold age
    Colder than all days before
    Colder than all years before
    
    Taste a tide
    Where landscapes surround us with blight
    The everflowing streams of our enemies blood run cold
    
    A strong ride
    Stronger than all days before
    Stronger than all years before
    
    The might and pride
    Mightier than all days before
    Mightier than all years before
    
    Come taste a tide
    Where demons play the mind
    On the windrippled steps
    The everflowing streams of our enemies blood run cold
    
    Blow the horn for our tide to come
    Triumph our battle be won
    
    Battle all the lands
    It's the triumph of the ages
    Empires fall by hands
    In the triumph of the ages
    Black demonic hordes
    Journey against the earth
    Coming from the North
    Speeding on a gathering wind
    
    It's a dark time
    Darker than all days before
    Darker that all years before
    It's a cold age
    Colder than all days before
    Colder than all years before
    
    Come taste a tide
    Where landscapes surround us with blight
    The everflowing streams of our enemies blood run cold
     

    Тональность:

    Нет текста!



    Назад
    Рекомендуем посмотреть другие песни исполнителя «Immortal»:

    • Комментарии Facebook ()
    • Комментарии ВКонтакте



    Добавить в Избранное Браузера
    Сохранить здесь Очистить


    x

    0


    +
    -

    +
    -

    -

    Авторизация





    Зарегистрироваться

    M

    Дата и время

    • 07:47:12
       

    Социальные ссылки


    Наши приложения

    • Muzbank App Play Market
    • Muzbank Amazon App