MUZBANK



A Most Complete Bank Of Music Information

МУЗЫКАЛЬНО-ИНФОРМАЦИОННЫЙ БАНК

Поиск по сайту







    IIn Flames • Clayman (аккорды и текст - chords & lyrics)


    237

    Print

    Видео «Clayman (In Flames)»

    Видео клипы к песне подбираются автоматически сайтом youtube. Возможны некоторые несоответствия клипов песне.

    ↑ Спрятать рекламу ↑



    Download


     Bass guitar
    
    ..  - palm mute          /  - slide up to
       - slide down to      ~  - vibrato
     h  - hammer on          b  - bend
     p  - pull off            Suffixes for bend
                              ph - pinch harmonic
                               f - full bend    h - half bend
    *  - see comment           r - release      t - tap bend
    X  - percussion mute       ~ - vibrato bend
    @  - slight palm mute     () - ghost note, sustained note
    
    Tune Bass to (C,F,Bb,Eb)
    
    Clayman
    
    Riff A (0:00 - 0:22)
    |--------------------------------------------------------------|
    |--------------------------------------------------------------|
    |--------------------------------------------------------------|
    |-5---5--5/8---8--83---3--3/10-------5---5--5/8---8--8333-3-3|
    
    |---------|
    |---------| 
    |---------|
    |-333-3-3-|
    
    Repeat Riff A (1 Time)
    
    Riff B (0:23 - 0:44) 
    |------------------------------------------------------------------|
    |------------------------------------------------------------------|
    |------------------------------------------------------------------|
    |-222-2-2-222-2-2-555-5-5-555-5-5-222-2-2-222-2-2-555-5-5-000-3-33-|
    
    Repeat Riff B (1 time)
    
    Riff C (0:44 - 0:55)
    |----------------------------------|
    |----------------------------------|
    |-4---34543--6---56765-------------|
    |---4----------6-------6///15----|
    
    Repeat Riff C (1 time)
    Repeat Riff B (2 times)
    
    
    Riff D (1:17 - 1:28)
    |-----------------------------------|
    |-----------------------------------|
    |-4---34543--6---56765--------------|
    |---4----------6-------6///15-----|
    
    Riff E (1:28 - 1:47)
    |---------------------------------------------------------------|
    |---------------------------------------------------------------|
    |---------------------------------------------------------------|
    |-5---5--5/8---8--83---3--3/10-------5---5--5/8---8--8333-3-3-|
    
    |---------------------------------------------------------------|
    |---------------------------------------------------------------|
    |---------------------------------------------------------------|
    |-333-3-3--5---5--5/8---8--83---3--3/10-------5---5--5/8---8--8|
    
    Riff F (1:47 - 2:31)
    |-------------------------------------------------------------|
    |-------------------------------------------------------------|
    |----0-3h5-4-4444-----0-3h5-4-4444-----0-3h5-4-4444-----------|
    |-0-----------------0----------------0----------------6--8--10|
    
    Repeat Riff F (3 Times)
    Repeat Riff B (2 Times)
    
    Riff G (2:53 - 3:14)
    |--------------------------------------------------------------|
    |--------------------------------------------------------------|
    |--------------------------------------------------------------|
    |-5---5--5/8---8--83---3--3/10-------5---5--5/8---8--8333-3-3|
    
    |---------|
    |---------|
    |---------|
    |-333-3-3-|
    
    Repeat Riff G (1 Time)
    
    Riff H (3:14 - END)
    |----------------------------------------------------|
    |----------------------------------------------------|
    |----------------------------------------------------|
    |--333-3-3-333-3-3--333-3-3-333-3-3--333-3-3-333-3-3-| 

    Тональность:

    Нет текста!



    Назад
    Рекомендуем посмотреть другие песни исполнителя «In Flames»:

    • Комментарии Facebook ()
    • Комментарии ВКонтакте



    Добавить в Избранное Браузера
    Сохранить здесь Очистить


    x

    0


    +
    -

    +
    -

    -

    Авторизация





    Зарегистрироваться

    M

    Дата и время

    • 17:33:24
       

    Социальные ссылки


    Наши приложения

    • Muzbank App Play Market
    • Muzbank Amazon App