MUZBANK



A Most Complete Bank Of Music Information

МУЗЫКАЛЬНО-ИНФОРМАЦИОННЫЙ БАНК

Поиск по сайту







    IIn Flames • Dead Alone (аккорды и текст - chords & lyrics)


    248

    Print

    Видео «Dead Alone (In Flames)»

    Видео клипы к песне подбираются автоматически сайтом youtube. Возможны некоторые несоответствия клипов песне.

    ↑ Спрятать рекламу ↑



    Download


     
    
    
    Band: In Flames
    Song: Dead Alone
    Album: Soundtrack to Your Escape (2004)
    
    Legend
    
    pm.: Palm Mute         :   Slide Back
    *PH: Pinch Harmonic    h:   Hammer-on
    ^fb: Full Bend         p:   Pull-off
    ^hb: Half Bend         ~:   Let Note Ring (Vibrato)
    /:   Slide Forward     ():  Ghost Note
    
    
    Tuning: Drop A# (A# F A# D# G C)
    
    There is super over-dubbing in this song~!
    
    Intro/Outro
    
    Bjorn And Jesper
    
    
     Gtr.1 w/Delay
    |----8-----8---------8-----8------|
    |-6-----6-----6-5-6-----6-----6-5-|
    |---------------------------------|
    |---------------------------------|
    |---------------------------------|
    |---------------------------------|
    
    
     Gtr.1 w/Delay
    |-----8--------8--------------8---------8---------|
    |-6--------6----------6-5-6--------6----------6-5-|
    |-------------------------------------------------|
    |-------------------------------------------------|
    |-------------------------------------------------|
    |-------------------------------------------------|
    |Gtr.2 w/Distortion                               |
    |-------------------------------------------------|
    |-------------------------------------------------|
    |-------------------------------------------------|
    |-0-0-0-0-0-0h5-5-5-5-5-53-3-3-3-3-3-3-3-3-3-3-3-|
    |-0-0-0-0-0-0h5-5-5-5-5-53-3-3-3-3-3-3-3-3-3-3-3-|
    |-0-0-0-0-0-0h5-5-5-5-5-53-3-3-3-3-3-3-3-3-3-3-3-|
    |Gtr.3 w/Distortion                               |
    |-------------------------------------------------|
    |-------------------------------------------------|
    |-------------------------------------------------|
    |-0-0-0-0-0-0h5-5-5-5-5-53-3-3-3-3-3-3-3-3-3-3-3-|
    |-0-0-0-0-0-0h5-5-5-5-5-53-3-3-3-3-3-3-3-3-3-3-3-|
    |-0-0-0-0-0-0h5-5-5-5-5-53-3-3-3-3-3-3-3-3-3-3-3-|
    
    
     Gtr.1 w/Delay
    |-----8--------8--------------------------------------|
    |-6--------6----------6-5-----------------------------|
    |-----------------------------------------------------|
    |-----------------------------------------------------|
    |-----------------------------------------------------|
    |-----------------------------------------------------|
    |Gtr.2 w/Distortion                                   |
    |-----------------------------------------------------|
    |-----------------------------------------------------|
    |-----------------------------------------------------|
    |-0-0-0-0-0-0h5-5-5-5-5-5-3-3-2-2-2-2-2-2-2-2-2-2-2-2-|
    |-0-0-0-0-0-0h5-5-5-5-5-5-1-1/3-3-3-3-3-3-3-3-3-3-3-3-|
    |-0-0-0-0-0-0h5-5-5-5-5-5-----------------------------|
    |Gtr.3 w/Distortion                                   |
    |-----------------------------------------------------|
    |-----------------------------------------------------|
    |---------------------------------------3-5-3-2-------|   
    |-0-0-0-0-0-0h5-5-5-5-5-5-3-3-2-2-2-2-2---------5-3-2-|   
    |-0-0-0-0-0-0h5-5-5-5-5-5-1-1/3-3-3-3-3---------------|
    |-0-0-0-0-0-0h5-5-5-5-5-5-----------------------------|
    |Gtr.4 w/Distortion                                   |
    |-----------------------------------------------------|
    |-----------------------------------------------------|
    |-----------------------------------------2-----------|   
    |-0-0-0-0-0-0h5-5-5-5-5-5-0-0-2-2-2-2-2-5---5-3-2-----|   
    |-0-0-0-0-0-0h5-5-5-5-5-5-1-1/3-3-3-3-3-----------5-3-|   
    |-0-0-0-0-0-0h5-5-5-5-5-5-----------------------------|
    
    Repeat Intro Again
    
    Verse - Both Guitars
    
    |---------------------------------------------|
    |---------------------------------------------|
    |---------------------------------------------|
    |---------------------------------------------|
    |-0-0---0-0-----------0-0---0-0----7/8---3-5--|   
    |-0-0---0-0-----------0-0---0-0----7/8---3-5--|x4   
    
    
    Pre-Chorus
    
     Gtr.1
    |---------------------------------------------------------------------|
    |---------------------------------------------------------------------|
    |---------------------------------------------------------------------|
    |--------------7---7-------------------------------7---7--------------|
    |-7-8-8-7---0----8---8--5-5-5-5-5-5-5--7-8-8-7--0----8---8----7-8-8-7-|
    |-----------0-----------5-5-5-5-5-5-5-----------0---------------------|
    |Gtr.2                                                                |
    |---------------------------------------------------------------------|
    |---------------------------------------------------------------------|
    |---------------------------------------------------------------------|
    |-----7-5----------------------------------7-5--------------------7-5-|
    |-7-8-------0--8-5-8-5--5-5-5-5-5-5-5--7-8------0--8-5-8-5----7-8-----|
    |-----------0-----------5-5-5-5-5-5-5-----------0---------------------|
    |Gtr.3                                                                |
    |---------------------------------------------------------------------|
    |---------------------------------------------------------------------|
    |---------------------------------------------------------------------|
    |-3-3-5-5------------------------------3-3-5-5----------------3-3-5-5-|
    |-1-1-3-3---------------5-5-5-5-5-5-5--1-1-3-3----------------1-1-3-3-|
    |---------0-0-0-0-0-0-0-5-5-5-5-5-5-5-----------0-0-0-0-0-0-0---------|
                            pm...........
    
    
     Gtr.1
    |------------------------------------------------------------------|
    |------------------------------------------------------------------|
    |------------------------------------------------------------------|
    |-----7---7------------------------7-5---7---7---------------------|
    |-0-----8---8---5-5-5-5-5-5-5--7-8---------8---8-------------------|
    |-0-------------5-5-5-5-5-5-5--------------------------------------|
    |Gtr.2                                                             |
    |------------------------------------------------------------------|
    |------------------------------------------------------------------|
    |----------------------------------5-4-----------------------------| <
    |------------------------------5-7---------------------------------| <
    |-0---8-5-8-5---5-5-5-5-5-5-5------------8-5-8-5-------------------|
    |-0-------------5-5-5-5-5-5-5--------------------------------------|
    |Gtr.3                                                             |
    |------------------------------------------------------------------|
    |------------------------------------------------------------------|
    |------------------------------------------------------------------|
    |------------------------------3-3-5-5-----------------------------|
    |---------------5-5-5-5-5-5-5--1-1-3-3-------------3-3-3-3-3-3-3-3-|
    |-0-0-0-0-0-0-0-5-5-5-5-5-5-5-----------0-0-0-0-0------------------|
                    pm...........                      pm.............
    
    
    Verse 2 
    
    |---------------------------------------------|
    |---------------------------------------------|
    |---------------------------------------------|
    |---------------------------------------------|
    |-0-0---0-0-----------0-0---0-0----7/8---3-5--|   
    |-0-0---0-0-----------0-0---0-0----7/8---3-5--|x4 
    
    Pre-Chorus (again)
    
    Chorus - Both Guitars
    
    |---------------------------------------|
    |---------------------------------------|
    |---------------------------------------|
    |---------------------------------------|
    |-0-0--0-0--5-5--5-5--3-3--3-3--5-5-5-5-|
    |-0-0--0-0--5-5--5-5--3-3--3-3--5-5-5-5-|
    
    |----------------------------------|
    |----------------------------------|
    |----------------------------------|
    |----------------------------------|
    |-0-0--0-0--5-5-5--3-3--3-3--5-5-5-|
    |-0-0--0-0--5-5-5--3-3--3-3--5-5-5-|
    
    |----------------------------------|
    |----------------------------------|
    |------------------5-5-5-x-x-x-----|
    |------------------5-5-5-x-x-x-3-3-|
    |-0-0--0-0--5-5-5--3-3-3-x-x-x-1-0-|
    |-0-0--0-0--5-5-5------------------|
    
    Fill 
    
    |---------------|
    |---------------|
    |---------------|
    |---------------|
    |-3-3--3--3-3-3-|
    |-3-3--3--3-3-3-|
    
    Bridge
    
     gtr.1
    |------------------------------------------------|
    |------------------------------------------------|
    |------------------------------------------------|
    |------------------------------------------------|
    |---------1~---------3~---------------1~------3~-|
    |-5~--3~--------------------5~--3~---------------|
    |gtr.2                                           |
    |------------------------------------------------|
    |------------------------------------------------|
    |---------5--7h9p7p5-----------------------------|
    |-8~--7~-------------5/7~---8~--7~-5-------5-7-5-|
    |-------------------------------------8--5-------|
    |------------------------------------------------|
    |gtr.3                                           |
    |------------------------------------------------|
    |------------------------------------------------|
    |------------------------------------------------|
    |------------------------------------------------|
    |---------5~--------7~----------------5~------7~-|
    |-8~--7~--------------------8~--7~---------------|
    
    
     gtr.1
    |------------------------------------------------|
    |------------------------------------------------|
    |------------------------------------------------|
    |------------------------------------------------|
    |---------1~---------3~---------------1~------3~-|
    |-5~--3~--------------------5~--3~---------------|
    |gtr.2                                           |
    |------------------------------------------------|
    |------------------------------------------------|
    |---------5--7h9p7p5------------------7--9/10----|
    |-8~--7~-------------5/7~---8~--7~-5----------10-|
    |------------------------------------------------|
    |------------------------------------------------|
    |gtr.3                                           |
    |------------------------------------------------|
    |------------------------------------------------|
    |------------------------------------------------|
    |------------------------------------------------|
    |---------5~--------7~----------------5~------7~-|
    |-8~--7~--------------------8~--7~---------------|
    |gtr.4                                           |
    |------------------------------------------------|
    |-------------------------------------6--8/10----|
    |---------------------------------------------9--|
    |------------------------------------------------|
    |------------------------------------------------|
    |------------------------------------------------|
    
    Interlude
    
     gtr.1
    |-----------------------------------------------------------------------|
    |-----------------------------------------------------------------------|
    |-----------------------------------------------------------------------|
    |-----------------------------------------------------------------------|
    |----8-----10-----8-----7-----7-8-----10-----10---------10---10-12-10-8-|
    |-0~---0-0----0-0---0-0---0-0------7-----7-7----7-7--8-----8------------|
    |gtr.2                                                                  |
    |-----------------------------------------------------------------------|
    |-----------------------------------------------------------------------|
    |-----------------------------------------------------------------------|
    |-----------------------------------------------------------------------|
    |----12----13-----12----10----10-12---7------7----------7----7--8--7--5-|
    |-0----0-0----0-0---0-0---0-0------7-----7-7----7-7--8-----8------------|
    
    
    |---------------------------------------------------|
    |---------------------------------------------------|
    |---------------------------------------------------|
    |---------------------------------------------------|
    |----8-----10-----8-----7-----7-8-----10-----10-10~-|
    |-0~---0-0----0-0---0-0---0-0------7-----7-7----10~-|
    |gtr.2                                              |
    |---------------------------------------------------|
    |---------------------------------------------------|
    |---------------------------------------------------|
    |---------------------------------------------------|
    |----12----13-----12----10----10-12---7------7--10~-|
    |-0----0-0----0-0---0-0---0-0------7-----7-7----10~-|
    
    
     gtr.1
    |------------------------------------------------|
    |------------------------------------------------|
    |------------------------------------------------|
    |------------------------------------------------|
    |----------------------------------------------~-|
    |-0~0---0-0--0-0-0---7-7-7--10-10-10-10--10------|
    |gtr.2                                           |
    |------------------------------------------------|
    |------------------------------------------------|
    |------------------------------------------------|
    |-7-7---7-7--7-7-7---7-7-7--10-10-10-10--10------|
    |-5-5---5-5--5-5-5---7-7-7--10-10-10-10--10------|
    |--------------------7-7-7--10-10-10-10--10------|
    
     gtr.1
    |------------------------------------------------|
    |------------------------------------------------|
    |------------------------------------------------|
    |------------------------------------------------|
    |----------------------------------------------~-|
    |-0~0---0-0--0-0-0---7-7-7--10-------------------|
    |gtr.2                                           |
    |------------------------------------------------|
    |------------------------------------------------|
    |------------------------------------------------|
    |-7-7---7-7--7-7-7---7-7-7--10~------------------|
    |-5-5---5-5--5-5-5---7-7-7--10~------------------|
    |--------------------7-7-7--10~------------------|
    
    Fill +
    
     gtr.1
    |----------------------------|
    |----------------------------|
    |----------------------------|
    |----------------------------|
    |-3-3--3--3-3-3--------------|
    |-3-3--3--3-3-3--------------|
    |gtr.2                       |
    |----------------------------|
    |----------------------------|
    |----------------7-7-9-9/10~-|
    |----------------x-x-x-x--x--|
    |----------------5-5/7-7/ 8~-|
    |----------------------------|
    
    Fill 3
    
    |----------|
    |----------|
    |----------|
    |----------|
    |-0-0--0-0-|
    |-0-0--0-0-|x2
    
    
    Verse 3 - Both Guitars
    
    |---------------------------------------------|
    |---------------------------------------------|
    |---------------------------------------------|
    |---------------------------------------------|
    |-0-0---0-0-----------0-0---0-0----7/8---3-5--|   
    |-0-0---0-0-----------0-0---0-0----7/8---3-5--|x2 
    
    Pre-Chorus
    
     Gtr.1
    |---------------------------------------------------------------------|
    |---------------------------------------------------------------------|
    |---------------------------------------------------------------------|
    |--------------7---7-------------------------------7---7--------------|
    |-7-8-8-7---0----8---8--5-5-5-5-5-5-5--7-8-8-7--0----8---8----7-8-8-7-|
    |-----------0-----------5-5-5-5-5-5-5-----------0---------------------|
    |Gtr.2                                                                |
    |---------------------------------------------------------------------|
    |---------------------------------------------------------------------|
    |---------------------------------------------------------------------|
    |-----7-5----------------------------------7-5--------------------7-5-|
    |-7-8-------0--8-5-8-5--5-5-5-5-5-5-5--7-8------0--8-5-8-5----7-8-----|
    |-----------0-----------5-5-5-5-5-5-5-----------0---------------------|
    |Gtr.3                                                                |
    |---------------------------------------------------------------------|
    |---------------------------------------------------------------------|
    |---------------------------------------------------------------------|
    |-3-3-5-5------------------------------3-3-5-5----------------3-3-5-5-|
    |-1-1-3-3---------------5-5-5-5-5-5-5--1-1-3-3----------------1-1-3-3-|
    |---------0-0-0-0-0-0-0-5-5-5-5-5-5-5-----------0-0-0-0-0-0-0---------|
                            pm...........
    
    
     Gtr.1
    |------------------------------------------------------------------|
    |------------------------------------------------------------------|
    |------------------------------------------------------------------|
    |-----7---7------------------------7-5---7---7---------------------|
    |-0-----8---8---5-5-5-5-5-5-5--7-8---------8---8-------------------|
    |-0-------------5-5-5-5-5-5-5--------------------------------------|
    |Gtr.2                                                             |
    |------------------------------------------------------------------|
    |------------------------------------------------------------------|
    |----------------------------------5-4-----------------------------|
    |------------------------------5-7---------------------------------|
    |-0---8-5-8-5---5-5-5-5-5-5-5------------8-5-8-5-------------------|
    |-0-------------5-5-5-5-5-5-5--------------------------------------|
    |Gtr.3                                                             |
    |------------------------------------------------------------------|
    |------------------------------------------------------------------|
    |------------------------------------------------------------------|
    |------------------------------3-3-5-5-----------------------------|
    |---------------5-5-5-5-5-5-5--1-1-3-3-------------3-3-3-3-3-3-3-3-|
    |-0-0-0-0-0-0-0-5-5-5-5-5-5-5-----------0-0-0-0-0------------------|
                    pm...........                      pm.............
    
    Chorus 3
    
    |----------------------------------|
    |----------------------------------|
    |----------------------------------|
    |----------------------------------|
    |-0-0--0-0--5-5-5--3-3--3-3--5-5-5-|
    |-0-0--0-0--5-5-5--3-3--3-3--5-5-5-|
    
    |----------------------------------|
    |----------------------------------|
    |------------------5-5-5-x-x-x-3-3-|
    |------------------5-5-5-x-x-x-3-3-|
    |-0-0--0-0--5-5-5--3-3-3-x-x-x-1-0-|
    |-0-0--0-0--5-5-5------------------|
    
    
    Outro
    
     Gtr.1 w/Delay
    |-----8--------8--------------8---------8---------|
    |-6--------6----------6-5-6--------6----------6-5-|
    |-------------------------------------------------|
    |-------------------------------------------------|
    |-------------------------------------------------|
    |-------------------------------------------------|
    |Gtr.2 w/Distortion                               |
    |-------------------------------------------------|
    |-------------------------------------------------|
    |-------------------------------------------------|
    |-0-0-0-0-0-0h5-5-5-5-5-53-3-3-3-3-3-3-3-3-3-3-3-|
    |-0-0-0-0-0-0h5-5-5-5-5-53-3-3-3-3-3-3-3-3-3-3-3-|
    |-0-0-0-0-0-0h5-5-5-5-5-53-3-3-3-3-3-3-3-3-3-3-3-|
    |Gtr.3 w/Distortion                               |
    |-------------------------------------------------|
    |-------------------------------------------------|
    |-------------------------------------------------|
    |-0-0-0-0-0-0h5-5-5-5-5-53-3-3-3-3-3-3-3-3-3-3-3-|
    |-0-0-0-0-0-0h5-5-5-5-5-53-3-3-3-3-3-3-3-3-3-3-3-|
    |-0-0-0-0-0-0h5-5-5-5-5-53-3-3-3-3-3-3-3-3-3-3-3-|
    
    
     Gtr.1 w/Delay
    |-----8--------8--------------------------------------|
    |-6--------6----------6-5-----------------------------|
    |-----------------------------------------------------|
    |-----------------------------------------------------|
    |-----------------------------------------------------|
    |-----------------------------------------------------|
    |Gtr.2 w/Distortion                                   |
    |-----------------------------------------------------|
    |-----------------------------------------------------|
    |-----------------------------------------------------|
    |-0-0-0-0-0-0h5-5-5-5-5-5-3-3-2-2-2-2-2-2-2-2-2-2-2-2-|
    |-0-0-0-0-0-0h5-5-5-5-5-5-1-1/3-3-3-3-3-3-3-3-3-3-3-3-|
    |-0-0-0-0-0-0h5-5-5-5-5-5-----------------------------|
    |Gtr.3 w/Distortion                                   |
    |-----------------------------------------------------|
    |-----------------------------------------------------|
    |---------------------------------------3-5-3-2-------|   
    |-0-0-0-0-0-0h5-5-5-5-5-5-3-3-2-2-2-2-2---------5-3-2-|   
    |-0-0-0-0-0-0h5-5-5-5-5-5-1-1/3-3-3-3-3---------------|
    |-0-0-0-0-0-0h5-5-5-5-5-5-----------------------------|
    |Gtr.4 w/Distortion                                   |
    |-----------------------------------------------------|
    |-----------------------------------------------------|
    |-----------------------------------------2-----------|   
    |-0-0-0-0-0-0h5-5-5-5-5-5-0-0-2-2-2-2-2-5---5-3-2-----|   
    |-0-0-0-0-0-0h5-5-5-5-5-5-1-1/3-3-3-3-3-----------5-3-|   
    |-0-0-0-0-0-0h5-5-5-5-5-5-----------------------------|
    
    
    End On
    
    |----|
    |----|
    |----|
    |-0~-|
    |-0~-|
    |-0~-|
     

    Тональность:

    Нет текста!



    Назад
    Рекомендуем посмотреть другие песни исполнителя «In Flames»:

    • Комментарии Facebook ()
    • Комментарии ВКонтакте



    Добавить в Избранное Браузера
    Сохранить здесь Очистить


    x

    0


    +
    -

    +
    -

    -

    Авторизация





    Зарегистрироваться

    M

    Дата и время

    • 14:39:07
       

    Социальные ссылки


    Наши приложения

    • Muzbank App Play Market
    • Muzbank Amazon App