MUZBANK



A Most Complete Bank Of Music Information

МУЗЫКАЛЬНО-ИНФОРМАЦИОННЫЙ БАНК

Поиск по сайту







    IIn Flames • December Flower (аккорды и текст - chords & lyrics)


    252

    Print

    Видео «December Flower (In Flames)»

    Видео клипы к песне подбираются автоматически сайтом youtube. Возможны некоторые несоответствия клипов песне.

    ↑ Спрятать рекламу ↑



    Download


     
    
    
    Song December flower
    By In flames
    tabbed by Silkmoth **
    
    great song!
    
     Intro
      
           
    
      Gtr I
    |----------------------------------|---------------------------------|
    |o---------------------------------|---------------------------------|
    |----------------------------------|---------------------------------|
    |----------------------------------|---------5-5-5-5-7-7-7-7-9-9-9-9-|
    |o---------------------------------|---------------------------------|
    |--0-0-0-0-0-0-0-0-0-0-0-0-0-0-0-0-|-3-3-3-3-------------------------|
    |
    | Gtr II
    |       PM----------------------------------------------------------|
    |----------------------------------|---------------------------------|
    |o---------------------------------|---------------------------------|
    |----------------------------------|---------------------------------|
    |----------------------------------|---------------------------------|
    |o---------------------------------|---------------------------------|
    |--0-0-0-0-0-0-0-0-0-0-0-0-0-0-0-0-|-3-3-3-3-3-3-3-3-3-3-3-3-3-3-3-3-||---------------------------------|
    |---------------------------------|
    |---------------------------------|
    |---------------------------------|
    |-2-2-2-2-2-2-2-2-2-2-2-2-2-2-2-2-|
    |---------------------------------|
    |
    | PM----------------------------|
    |---------------------------------|
    |---------------------------------|
    |---------------------------------|
    |---------------------------------|
    |-5-5-5-5-5-5-5-5-5-5-5-5-5-5-5-5-|
    |---------------------------------|
                                           4x
    |--------------------------------------||-------------------------------||
    |-------------------------------------o||-------------------------------||
    |--------------------------------------||---------5-5-5-5----5----------||
    |---------10-10-10-10-9-9-9-9-7-7-7-7--||-----------------4--5----------||
    |-0-0-0-0-----------------------------o||-0-0-0-0---------2--3----x----||
    |--------------------------------------||-------------------------x----||
    |
    |                                         PM------------|
    |                                      4x
    |--------------------------------------||-------------------------------||
    |-------------------------------------o||-------------------------------||
    |--------------------------------------||--------------------5----------||
    |----------7--7--7--7-5-5-5-5-4-4-4-4--||-----------------4--5----------||
    |-0-0-0-0-----------------------------o||-0-0-0-0-0-0-0-0-2--3--/12----||
    |--------------------------------------||-------------------------------||
    
    
     Interlude
      E5                        E6                                  D
      Gtr III
      ~~~~~~~~~~~~~~~~~~                ~~~~        PM
    |-------------------------------|----------------------------7------|
    |-------------------------------|--------------------8----------10--|
    |-9-------------(9)----------9--|--(9)----------9-------9-----------|
    |------------------------9------|-----------------------------------|
    |-7-------------(7)-------------|-----------------------------------|
    |-------------------------------|-----------------------------------|
    |
    | Gtr I
    |    PM|    PM|      PM|     ~~~~~~~~~~ PM|     PM|     PM|      ~~
    |-------------------------------|-----------------------------------|
    |-------------------------------|-----------------------------------|
    |-------------------------------|-----------------------------------|
    |-9------9-------9-------9---7--|--(7)-------7-------7-------7---4--|
    |-------------------------------|-----------------------------------|
    |----0-0----0-0------0-0--------|-------0-0-----0-0-----0-0---------|
    |
    | Gtr II
    |    PM|    PM|      PM|     ~~~~~~~~~~ PM|     PM|     PM|      ~~
    |-------------------------------|-----------------------------------|
    |-------------------------------|-----------------------------------|
    |-------------------------------|--------------------------------2--|
    |-9------9-------9-------9--10--|-(10)------10------10------10---4--|
    |-7------7-------7-------7---7--|--(7)-------7-------7-------7---5--|
    |----0-0----0-0------0-0--------|-------0-0-----0-0-----0-0---------|
    
    
                                   C5    B5      A5   B5            C5
    |------------------------------------------|-----------------------------------|
    |-(10)--8h10p==8-7--8---7------------7-----|-(7)--7b8======(7)r=(7)--7---------|
    |--------------------------7---------------|----------------------------9-7----|
    |------------------------------9-(9)-------|-----------------------------------|
    |------------------------------------------|-----------------------------------|
    |------------------------------------------|-----------------------------------|
    |
    |   ~~~~PM---|      PM|    PM|                              PM--|
    |------------------------------------------|-----------------------------------|
    |------------------------------------------|-----------------------------------|
    |------------------------------------------|-----------------------------------|
    |---4------------4------4------4-----5-----|-(5)--4h===5p4-------4---5---------|
    |------------------------------------------|----------------7------------------|
    |-------0----0------0-0----0-0-------------|-----------------------------------|
    |
    |   ~~~~PM---|      PM|    PM|
    |------------------------------------------|-----------------------------------|
    |------------------------------------------|-----------------------------------|
    |--(2)-----------2------2------------------|-----------------------------------|
    |--(4)-----------4------4------5-----4-(4)-|--2-------------4--------5----5----|
    |--(5)-----------5------5------3-----2-(2)-|--0-------------2--------3----3----|
    |-------0----0------0-0----0-0-------------|-----------------------------------|
    
    
      E5                         E6                                          D
      ~~~~~~~~~~~~~~~~~~
    |-------------------------7------|--14h==15---(15)--(15)-15-19--15---22--20--|
    |-8-------------(8)--8-8-10---8--|--15h==17---(17)--(17)-17-20--17---24--22--|
    |-9-------------(9)--9-9------9--|-------------------------------------------|
    |--------------------------------|-------------------------------------------|
    |--------------------------------|-------------------------------------------|
    |--------------------------------|-------------------------------------------|
    |
    |    PM|    PM|      PM|      ~~~~~~~~~~  PM|         PM-|       PM|      ~~
    |--------------------------------|-------------------------------------------|
    |--------------------------------|-------------------------------------------|
    |--------------------------------|-------------------------------------------|
    |-9------9-------9--------9---7--|--(7)---------7------------7--------7---4--|
    |--------------------------------|-------------------------------------------|
    |----0-0----0-0------0-0---------|--------0-0---------0---0------0-0---------|
    |
    |    PM|    PM|      PM|      ~~~~~~~~~~  PM|         PM-|       PM|      ~~
    |--------------------------------|-------------------------------------------|
    |--------------------------------|-------------------------------------------|
    |--------------------------------|----------------------------------------2--|
    |-9------9-------9--------9--10--|-(10)--------10-----------10-------10---4--|
    |-7------7-------7--------7---7--|--(7)---------7------------7--------7---5--|
    |----0-0----0-0------0-0---------|--------0-0---------0---0------0-0---------|
    
    
                                         C5  B5
    |-(20)--19h20p==19-17--19---17--15--------------|
    |-(22)--20h22p==20-19--20---19--15---15---------|
    |------------------------------------14--14-----|
    |----------------------------------------14-----|
    |-----------------------------------------------|
    |-----------------------------------------------|
    |
    |   ~~~~ PM---|         PM|      PM|
    |-----------------------------------------------|
    |-----------------------------------------------|
    |-----------------------------------------------|
    |---4---------------4--------4--------4---5-----|
    |-----------------------------------------------|
    |--------0----0---------0-0------0-0------------|
    |
    |   ~~~~ PM---|         PM|      PM|
    |-----------------------------------------------|
    |-----------------------------------------------|
    |---2---------------2--------2------------------|
    |---4---------------4--------4--------4---5-(5)-|
    |---5---------------5--------5--------2---3-(3)-|
    |--------0----0---------0-0------0-0------------|
    
    
      A5          B5      C5          E5
    |------------------------------------||
    |------------------------------------||
    |--9---12-----11--------------11--12-||
    |-16---12------9--12---9--12--12--14-||
    |-----------------12--14--12---------||
    |------------------------------------||
    |
    |              PM-|
    |------------------------------------||
    |------------------------------------||
    |------------------------------------||
    |-(5)---4h5p4------4---5-----------9-||
    |--------------7-------------------7-||
    |------------------------------------||
    |
    |------------------------------------||
    |------------------------------------||
    |------------------------------------||
    |-(5)---4------2---4---5-----------9-||
    |-(3)---2------0---2---3-----------7-||
    |------------------------------------||       E5  D         C#/D             C         G/B
        ~~~~~~~~~~~~~~~~~~~~~~~~~~
    |----------------------|--------------------------|
    |----------------------|--------------------------|
    |-(12)-----------------|-(12)---(12)-------------|
    |-(14)-----------------|-(14)---(14)-------------|
    |----------------------|--------------------------|
    |----------------------|--------------------------|
    |
    |        PM        PM             PM          PM
    |----------------------|--------------------------|
    |----------------------|--------------------------|
    |----------------------|--------------------------|
    |--(9)-9---4-(4)-4---7-|--(7)-7-------2-(2)-2---5-|
    |--(7)-7---5-(5)-5---4-|--(4)-4-------3-(3)-3---2-|
    |--------0---------0---|----------0-----------0---|
    |
    |        PM        PM             PM          PM
    |----------------------|--------------------------|
    |----------------------|--------------------------|
    |----------------------|--------------------------|
    |--(9)-9---4-(4)-4---7-|--(7)-7-------2-(2)-2---5-|
    |--(7)-7---5-(5)-5---4-|--(4)-4-------3-(3)-3---2-|
    |--------0---------0---|----------0-----------0---|
    
    
              B           E       N.C.
    |-----------------------|-------------------||
    |-----------------------|-------------------||
    |-----------------------|-------------------||
    |-----------------------|-------------------||
    |-----------------------|-------------------||
    |-----------------------|-------------------||
    |
    |       PM            PM------------| ~   PM
    |-----------------------|-------------------||
    |-----------------------|-------------------||
    |-----------------------|-------------9-----||
    |-(5)-5---1-(1)-1-(1)-2-|-(2)-------9-------||
    |-(2)-2---2-(2)-2-(2)-2-|-(2)-/7-10---------||
    |-------0-------------0-|-(0)-------------0-||
    |
    |       PM            PM------------| ~   PM
    |-----------------------|-------------------||
    |-----------------------|-------------8-----||
    |-----------------------|-----------9-------||
    |-(5)-5---1-(1)-1-(1)-2-|-(2)-----9---------||
    |-(2)-2---2-(2)-2-(2)-2-|-(2)--7------------||
    |-------0-------------0-|-(0)-------------0-||
    
    
       Verse
       
        E5                        E6                                  D
        Gtr I
             PM|    PM|    PM|     ~~~~~~~~~~ PM|     PM|     PM|     ~
    ||--------------------------------|---------------------------------|
    ||o-------------------------------|---------------------------------|
    ||--------------------------------|---------------------------------|
    ||--(9)------9------9------9---7--|--(7)-------7-------7-------7--4-|
    ||o-------------------------------|---------------------------------|
    ||-------0-0----0-0----0-0--------|-------0-0-----0-0-----0-0-------|
    |
    |   Gtr II
    |        PM|    PM|    PM|     ~~~~~~~~~~ PM|     PM|     PM|     ~
    ||--------------------------------|---------------------------------|
    ||o-------------------------------|---------------------------------|
    ||--------------------------------|-------------------------------2-|
    ||--(9)------9------9------9--10--|-(10)------10------10------10--4-|
    ||o-(7)------7------7------7---7--|--(7)-------7-------7-------7--5-|
    ||-------0-0----0-0----0-0--------|-------0-0-----0-0-----0-0-------|
    
    
                             B5 C5      A5         B5    BC5
       ~~~ PM|    PM|    PM|                       PM-|
    |---------------------------------|--------------------------|
    |---------------------------------|--------------------------|
    |---------------------------------|--------------------------|
    |-(4)------4------4------4--5-----|-(5)--4h5p4----4--5----9--|
    |---------------------------------|------------7-------------|
    |------0-0----0-0----0-0----------|--------------------------|
    |
    |  ~~~ PM|    PM|    PM|
    |---------------------------------|--------------------------|
    |---------------------------------|--------------------------|
    |-(2)------2------2---------------|--------------------------|
    |-(4)------4------4------4--5-(5)-|-(5)--4-----2--4--5----9--|
    |-(5)------5------5------2--3-(3)-|-(3)--2-----0--2--3----7--|
    |------0-0----0-0----0-0----------|--------------------------|
    
    
      E5                        E6                                  D
           PM|    PM|    PM|     ~~~~~~~~~~ PM|     PM|     PM|     ~
    |-------------------------------|----------------------------------|
    |-------------------------------|----------------------------------|
    |-------------------------------|----------------------------------|
    |-(9)------9------9------9---7--|--(7)-------7-------7-------7--4--|
    |-------------------------------|----------------------------------|
    |------0-0----0-0----0-0--------|-------0-0-----0-0-----0-0--------|
    |
    |      PM|    PM|    PM|     ~~~~~~~~~~ PM|     PM|     PM|     ~
    |-------------------------------|----------------------------------|
    |-------------------------------|----------------------------------|
    |-------------------------------|-------------------------------2--|
    |-(9)------9------9------9--10--|-(10)------10------10------10--4--|
    |-(7)------7------7------7---7--|--(7)-------7-------7-------7--5--|
    |------0-0----0-0----0-0--------|-------0-0-----0-0-----0-0--------|  D                         N.C.                         E5
       ~~~ PM|    PM|    PM|              PM-|
    |------------------------------|-----------------------------||
    |------------------------------|----------------------------o||
    |------------------------------|-----------------------------||
    |-(4)------4------4------4-----|------------/5--4--2--4--9---||
    |---------------------------0--|-(0)--2--3------------------o||
    |------0-0----0-0----0-0-------|-----------------------------||
    |
    |  ~~~ PM|    PM|    PM|    ~~~~~~~~~ PM-|
    |------------------------------|-----------------------------||
    |------------------------------|----------------------------o||
    |-(2)------2------2------2-----|------------/4--2------------||
    |-(4)------4------4------4-----|------0--2---------5--4--9---||
    |-(5)------5------5------5--3--|-(3)---------------------7--o||
    |------0-0----0-0----0-0-------|-----------------------------||  D                     N.C.
       ~~~PM|   PM|   PM|           PM|                  PM|
    |-------------------------|--------------------|--------------------||
    |-------------------------|--------------------|--------------------||
    |-------------------------|--------------------|--------------------||
    |-(4)-----4-----4-----4---|---------/5-4-2-4---|---------/5-4-2-4-9-||
    |-----------------------0-|-(0)-2-3----------0-|-(0)-2-3----------7-||
    |-----0-0---0-0---0-0-----|--------------------|--------------------||
    |
    |  ~~~PM|   PM|   PM|   ~~~~~~~~PM|          ~~~~~~~~PM|
    |-------------------------|--------------------|--------------------||
    |-------------------------|--------------------|--------------------||
    |-(2)-----2-----2-----2---|---------/4-2-------|---------/4-2-------||
    |-(4)-----4-----4-----4---|-----0-2------5-4---|-----0-2------5-4-9-||
    |-(5)-----5-----5-----5-3-|-(3)--------------3-|-(3)--------------7-||
    |-----0-0---0-0---0-0-----|--------------------|--------------------||  E5      D         C#/D        C         G/B
            PM        PM          PM        PM
    |---------------------|---------------------|
    |---------------------|---------------------|
    |---------------------|---------------------|
    |-(9)-9---4-(4)-4---7-|-(7)-7---2-(2)-2---5-|
    |-(7)-7---5-(5)-5---4-|-(4)-4---3-(3)-3---2-|
    |-------0---------0---|-------0---------0---|
    |
    |       PM        PM          PM        PM
    |---------------------|---------------------|
    |---------------------|---------------------|
    |---------------------|---------------------|
    |-(9)-9---4-(4)-4---7-|-(7)-7---2-(2)-2---5-|
    |-(7)-7---5-(5)-5---4-|-(4)-4---3-(3)-3---2-|
    |-------0---------0---|-------0---------0---|
    
    
                  
              B           E5      N.C.
            PM            PM------------| ~   PM
    |-----------------------|-------------------||
    |-----------------------|-------------------||
    |-----------------------|-------------9-----||
    |-(5)-5---1-(1)-1-(1)-2-|-(2)-------9-------||
    |-(2)-2---2-(2)-2-(2)-2-|-(2)-/7-10---------||
    |-------0-------------0-|-(0)-------------0-||
    |
    |       PM            PM------------| ~   PM
    |-----------------------|-------------------||
    |-----------------------|-------------8-----||
    |-----------------------|-----------9-------||
    |-(5)-5---1-(1)-1-(1)-2-|-(2)-----9---------||
    |-(2)-2---2-(2)-2-(2)-2-|-(2)--7------------||
    |-------0-------------0-|-(0)-------------0-||
    
    
     Guitar Solo
      E5
      Gtr III
    |-------------------------12-14-15-17-15-14----20-|
    |----------------------12-------------------17----|
    |----------------11-12----------------------------|
    |-------------14----------------------------------|
    |----------14-------------------------------------|
    |-12-14-15----------------------------------------|
    |
    | Gtrs I, II
    |        PM|         PM|         PM|         PM|
    |-------------------------------------------------|
    |-------------------------------------------------|
    |-------------------------------------------------|
    |--9-----------9-----------9-----------9----------|
    |--7-----------7-----------7-----------7----------|
    |--------0--0--------0--0--------0--0--------0--0-|
    
    
                                          D5
       ~~~~~~~~~~~~
    |-19------(19)--17h19p17--------------17-|
    |------------------------20--19---17-----|
    |----------------------------------------|
    |----------------------------------------|
    |----------------------------------------|
    |----------------------------------------|
    |
    |     PM|           PM|       PM|
    |----------------------------------------|
    |----------------------------------------|
    |----------------------------------------|
    |--9--------9-------------9--------9---7-|
    |--7--------7-------------7--------7---5-|
    |-----0-0-----------0--0------0-0--------|
    
    
                                                 B5
                                       ~~~~~~~~~
    |-(17)------15-14-12---------------------------------|
    |--------------------15----------------------10b12===|
    |-----------------------14-12-11-(11)-(11)----------|
    |----------------------------------------------------|
    |----------------------------------------------------|
    |----------------------------------------------------|
    |
    |----------------------------------------------------|
    |----------------------------------------------------|
    |----------------------------------------------------|
    |--(7)-------7-----------7--------------7-----4------|
    |--(5)-------5-----------5--------------5-----2------|
    |-------0-0--------0--0--------0---0-----------------|
    
    
                                         E5
                                           ~
    |----------------------------------------|
    |-(10)r=(10)---8h10p8-7---8---10---7---8-|
    |----------------------------------------|
    |----------------------------------------|
    |----------------------------------------|
    |----------------------------------------|
    |
    |         PM-|      PM|     PM|
    |----------------------------------------|
    |----------------------------------------|
    |----------------------------------------|
    |--(4)---------4--------4--------4---9---|
    |--(2)---------2--------2--------2---7---|
    |---------0--0------0-0-----0--0-----0---|
    
    
       ~~~
    |----------------19-22-20-19-------------------|
    |-(8)---------20-------------22-20-19----------|
    |----------21-------------------------21-19----|
    |-------------------------------------------22-|
    |----------------------------------------------|
    |----------------------------------------------|
    |
    |      PM|        PM|         PM|         PM|
    |----------------------------------------------|
    |----------------------------------------------|
    |----------------------------------------------|
    |-(9)-------9-----------9-----------9----------|
    |-(7)-------7-----------7-----------7----------|
    |------0-0--------0--0--------0--0--------0--0-|
    
    
                                                D5
    |-------------------------------------------------|
    |-------------------------------------------------|
    |-------------------------------------------------|
    |-21-22-19-21----19-------------------------------|
    |-------------22----21-22-19-21----19-------------|
    |-------------------------------22----19-20-19-22-|
    |
    |        PM|         PM|         PM|
    |-------------------------------------------------|
    |-------------------------------------------------|
    |-------------------------------------------------|
    |--9-----------9-----------9-----------9-----7----|
    |--7-----------7-----------7-----------7-----5----|
    |--------0--0--------0--0--------0--0-------------|
    
    
                                         B5                                    C5
        ~~~~                                                            ~~~~~~~~~
    |---------------------------------14-------|----------------------------------|
    |-----------------------15---17--------12-|-(12)----12s10----10s8--7------8--|
    |--------------------14----------------12-|-(12)----12s11----11s9--7------9--|
    |-----------------16-----------------------|----------------------------------|
    |--------------17--------------------------|----------------------------------|
    |-(22)-------------------------------------|----------------------------------|
    |
    |                                                  PM|      PM|     PM|
    |------------------------------------------|----------------------------------|
    |------------------------------------------|----------------------------------|
    |------------------------------------------|----------------------------------|
    |--(7)------7---------7---------7----4-----|--(4)--------4-------4------4--5--|
    |--(5)------5---------5---------5----2-----|--(2)--------2-------2------2--3--|
    |-------0-0-----0--0-------0--0------------|-------0--0-----0--0----0-0-------|
    
    
                                      D5
       ~~~
    |-------------------------------7-8-10-|
    |-(8)--------------------7-8-10--------|
    |-(9)----------------7-9---------------|
    |-------------7-9-10-------------------|
    |------7-9-10--------------------------|
    |--------------------------------------|
    |
    |      PM|      PM|      PM|
    |--------------------------------------|
    |--------------------------------------|
    |--------------------------------------|
    |-(5)-------5--------5--------5---7----|
    |-(3)-------3--------3--------3---5----|
    |------0-0------0--0-----0-0-----------|
    
    
                                                 E5
    |-----------------------------17-19-20-19-17-------|
    |--------------------17-19-20----------------20-19-|
    |-----------16-17-19-------------------------------|
    |-16--17-19----------------------------------------|
    |--------------------------------------------------|
    |--------------------------------------------------|
    |
    |         PM|         PM|         PM|
    |--------------------------------------------------|
    |--------------------------------------------------|
    |--------------------------------------------------|
    |-(7)-----------7-----------7-----------7-----9----|
    |-(5)-----------5-----------5-----------5-----7----|
    |---------0--0--------0--0--------0--0-------------||-----------------24-----------------22----------|
    |-------------20------22b24r(22)-20------20b22===|
    |-21---19b21-------------------------------------|
    |------------------------------------------------|
    |------------------------------------------------|
    |------------------------------------------------|
    |
    |------------------------------------------------|
    |------------------------------------------------|
    |------------------------------------------------|
    |-(9)---9------7S==5---7----------4-------5------|
    |-(7)----------9S==7----------------------7------|
    |-------------------------------------0---0------|
    
    
                                            C5
    |------------------------------------------|
    |-(20)r=(20)--19--20--22---20h22p20-19-----|
    |---------------------------------------21-|
    |------------------------------------------|
    |------------------------------------------|
    |------------------------------------------|
    |
    |                              ~~~
    |------------------------------------------|
    |------------------------------------------|
    |------------------------------------------|
    |---9-----7----9---7---4h5p=4------------5-|
    |---7-----7----7---------------7---------3-|
    |------------------------------------------|
    
    
                                              D5
    |-----------17-19-15-17-14-15----14-------------|
    |-----------------------------17----15-17-13-15-|
    |-(21)------------------------------------------|
    |-----------------------------------------------|
    |-----------------------------------------------|
    |-----------------------------------------------|
    |
    |       PM|        PM|         PM|
    |-----------------------------------------------|
    |-----------------------------------------------|
    |-----------------------------------------------|
    |--(5)-------5-----------5-----------5-----7----|
    |--(3)-------3-----------3-----------3-----5----|
    |-------0-0--------0--0--------0--0-------------|
    
    
                                                 E5
    |------------------------------------------------------|
    |-12--13----12-----------------------------------------|
    |--------14----12-14-11-12----11-12--------------------|
    |--------------------------14-------14-----------------|
    |--------------------------------------15-15h17p15-14--|
    |------------------------------------------------------|
    |
    |         PM|         PM|         PM|
    |------------------------------------------------------|
    |------------------------------------------------------|
    |------------------------------------------------------|
    |-(7)-----------7-----------7-----------7-----9--------|
    |-(5)-----------5-----------5-----------5-----7--------|
    |---------0--0--------0--0--------0--0-----------------|                            ~~
    |--------------------------------20b22==|
    |---------------------------------------|
    |---------------------------------------|
    |-14-----/14--16--17--16--14-----------|
    |---------------------------------------|
    |---------------------------------------|
    |
    |---------------------------------------|
    |---------------------------------------|
    |---------------------------------------|
    |-(9)--9----7S==5---7---4------5--------|
    |-(7)-------9S==7--------------7--------|
    |---------------------------0--0--------|
    
    
                                         C5
                         ~~~~~~~~
    |-(20)r=(20)--19h20-19--(19)-------------|
    |----------------------------------------|
    |----------------------------------------|
    |----------------------------------------|
    |----------------------------------------|
    |----------------------------------------|
    |
    |                               ~
    |----------------------------------------|
    |----------------------------------------|
    |----------------------------------------|
    |---9-----7----9-----7----4h5p4------5---|
    |---7-----7----7----------------7----3---|
    |----------------------------------------|
    
    
                                                D5
      Gtr III
    |-19---17b19r==(17)--22-------------------------|
    |-------------------------20b22r=(20)---19--17--|
    |-----------------------------------------------|
    |-----------------------------------------------|
    |-----------------------------------------------|
    |-----------------------------------------------|
    |
    | Gtr IV
    |-----------------------------------------------|
    |-17-----------------15-------------------------|
    |------14b16r==(14)-------12b14r=(12)---11--12--|
    |-----------------------------------------------|
    |-----------------------------------------------|
    |-----------------------------------------------|
    |
    | Gtrs I, II
    |       PM---|        PM|          PM-|
    |-----------------------------------------------|
    |-----------------------------------------------|
    |-----------------------------------------------|
    |-(5)------------5---------5-------------5---7--|
    |-(3)------------3---------3-------------3---5--|
    |-------0----0--------0-0----------0--0---------|
    
    
                                               E5
    |----------------------------------------------|
    |---------------15-----------------------------|
    |-14b16r=(14)-------12b14r==(12)--11-----------|
    |--------------------------------------12--14--|
    |----------------------------------------------|
    |----------------------------------------------|
    |
    |----------------------------------------------|
    |---------------12-----------------------------|
    |-11b12r=(11)----------------------------------|
    |-------------------14b16r==(14)--12-----------|
    |--------------------------------------12--14--|
    |----------------------------------------------|
    |
    |          PM-|      PM---|        PM|
    |----------------------------------------------|
    |----------------------------------------------|
    |----------------------------------------------|
    |-(7)------------7------------7---------7---9--|
    |-(5)------------5------------5---------5---7--|
    |----------0--0------0----0--------0-0---------|
    
    
                                                                   C5
                           ~~~~                                          ~~~~
    |----------19b20r====(19)-----------|-----------------------------------------|
    |-----------------------------------|-20b22r====(20)-----19---20---(20)-------|
    |-----------------------------------|-----------------------------------------|
    |-(14)------------------------------|-----------------------------------------|
    |-----------------------------------|-----------------------------------------|
    |-----------------------------------|-----------------------------------------|
    |
    |                      ~~~~                                          ~~~~
    |----------19b20r====(19)-----------|-15b17r====(15)-----14---15---(15)-------|
    |----------20b21r====(20)-----------|-17b19r====(17)-----15---17---(17)-------|
    |-----------------------------------|-----------------------------------------|
    |-----------------------------------|-----------------------------------------|
    |--14-------------------------------|-----------------------------------------|
    |-----------------------------------|-----------------------------------------|
    |
    |                                                                ~
    |-----------------------------------|-----------------------------------------|
    |-----------------------------------|-----------------------------------------|
    |-----------------------------------|-----------------------------------------|
    |--(9)--9---7S====5----7---4-----5--|--9-----7----9---7---4h5p=4----------5---|
    |--(7)------9S====7--------------7--|--7-----7----7--------------7--------3---|
    |-----------------------------0--0--|-----------------------------------------|
    
    
                                                D5
    |-19---17b19r==(17)--22-------------------------|
    |-------------------------20b22r=(20)---19--17--|
    |-----------------------------------------------|
    |-----------------------------------------------|
    |-----------------------------------------------|
    |-----------------------------------------------|
    |
    |-----------------------------------------------|
    |-17-----------------15-------------------------|
    |------14b16r==(14)-------12b14r=(12)---11--12--|
    |-----------------------------------------------|
    |-----------------------------------------------|
    |-----------------------------------------------|
    |
    |       PM---|        PM|          PM-|
    |-----------------------------------------------|
    |-----------------------------------------------|
    |-----------------------------------------------|
    |-(5)------------5---------5-------------5---7--|
    |--3-------------3---------3-------------3---5--|
    |-------0----0--------0-0----------0--0---------|
    
    
                                               
    |----------------------------------------------|
    |---------------15-----------------------------|
    |-14b16r=(14)-------12b14r==(12)--11-----------|
    |--------------------------------------12--14--|
    |----------------------------------------------|
    |----------------------------------------------|
    |
    |----------------------------------------------|
    |---------------12-----------------------------|
    |-11b12r=(11)----------------------------------|
    |-------------------14b16r==(14)--12-----------|
    |--------------------------------------12--14--|
    |----------------------------------------------|
    |
    |          PM-|      PM---|        PM|
    |----------------------------------------------|
    |----------------------------------------------|
    |----------------------------------------------|
    |-(7)------------7------------7---------7---9--|
    |-(5)------------5------------5---------5---7--|
    |----------0--0------0----0--------0-0---------||--------17h19----17--------------------|-----------------------------------------|
    |--------------20----19h20-17-(17)------|---------12h13----12---------------------|
    |------------------------------------12-|---12h14-------14----12h14-11--(11)---12-|
    |-(14)----------------------------------|-----------------------------------------|
    |---------------------------------------|-----------------------------------------|
    |---------------------------------------|-----------------------------------------|
    |
    |--------14h15-12h14----12--------------|-----------------------------------------|
    |--------------------15----12-(12)------|-----------------------------------------|
    |---------------------------------------|---------12h14-11h12----11-------------9-|
    |------------------------------------14-|---------------------14----12--(12)------|
    |-(14)----------------------------------|-----------------------------------------|
    |---------------------------------------|-----------------------------------------|
    |
    |                                                              ~~~~~~~~~
    |---------------------------------------|-----------------------------------------|
    |---------------------------------------|-----------------------------------------|
    |---------------------------------------|-----------------------------------------|
    |--(9)-9--7S====5-----7-----4---------5-|-9--9-----7S====5-----4----(4)---------5-|
    |--(7)----9S====7---------------------7-|-7--------9S====7----------------------7-|
    |----------------------------------0--0-|------------------------------------0--0-|
    
    
    |-----17h19----17--------------------|-----------------------------------------||
    |-----------20----19h20-17-(17)------|---13h15-13-12h13--12--------------------||
    |---------------------------------12-|----------------------14-12-11h12-11--9--||
    |------------------------------------|-----------------------------------------||
    |------------------------------------|-----------------------------------------||
    |------------------------------------|-----------------------------------------||
    |
    |-----14h15-12h14----12--------------|-----------------------------------------||
    |-----------------15----12-(12)------|---13h15-13-12h13--12--------------------||
    |------------------------------------|----------------------14-12--------------||
    |---------------------------------14-|----------------------------12h14-12S10--||
    |------------------------------------|-----------------------------------------||
    |------------------------------------|-----------------------------------------||
    |
    |                                                  ~~~~~~
    |------------------------------------|-----------------------------------------||
    |------------------------------------|-----------------------------------------||
    |------------------------------------|-----------------------------------------||
    |-9-9--7S====5-----7-----4---------5-|-9--9--7S=5--4-(4)-----5-----------------||
    |-7----9S====7---------------------7-|-7-----9S=7------------7-----------------||
    |-------------------------------0--0-|--------------------0--0-----------------||
    
    
       Interlude
       
        
        Gtr I
    ||----------------------------------|
    ||o---------------------------------|
    ||----------------------------------|
    ||----------------------------------|
    ||o---------------------------------|
    ||--0-0-0-0-0-0-0-0-0-0-0-0-0-0-0-0-|
    |
    |   Gtr II
    |   PM-------------------------------
    ||----------------------------------|
    ||o---------------------------------|
    ||----------------------------------|
    ||----------------------------------|
    ||o---------------------------------|
    ||--0-0-0-0-0-0-0-0-0-0-0-0-0-0-0-0-||---------------------------------|---------------------------------|
    |---------------------------------|---------------------------------|
    |---------------------------------|---------------------------------|
    |---------5-5-5-5-7-7-7-7-9-9-9-9-|---------------------------------|
    |---------------------------------|-2-2-2-2-2-2-2-2-2-2-2-2-2-2-2-2-|
    |-3-3-3-3-------------------------|---------------------------------|
    |
    |-----------------------------------------------------------------|
    |---------------------------------|---------------------------------|
    |---------------------------------|---------------------------------|
    |---------------------------------|---------------------------------|
    |---------------------------------|---------------------------------|
    |---------------------------------|-5-5-5-5-5-5-5-5-5-5-5-5-5-5-5-5-|
    |-3-3-3-3-3-3-3-3-3-3-3-3-3-3-3-3-|---------------------------------|
                                                                B5 C5
    |--------------------------------------||------------------------------||
    |-------------------------------------o||------------------------------||
    |--------------------------------------||---------5-5-5-5----5---------||
    |---------10-10-10-10-9-9-9-9-7-7-7-7--||-----------------4--5------9--||
    |-0-0-0-0-----------------------------o||-0-0-0-0---------2--3--x--7--||
    |--------------------------------------||-----------------------x-----||
    |
    |                                         PM------------|
    |--------------------------------------||------------------------------||
    |-------------------------------------o||------------------------------||
    |--------------------------------------||--------------------5---------||
    |----------7--7--7--7-5-5-5-5-4-4-4-4--||-----------------4--5------9--||
    |-0-0-0-0-----------------------------o||-0-0-0-0-0-0-0-0-2--3---------||
    |--------------------------------------||------------------------------||
    
    
     Interlude
    
      Gtrs I, II
    |-------------------------------------|
    |-------------------------------------|
    |-------------------------------------|
    |-(2)---------------------------------|
    |-(2)---------------------------------|
    |-(0)---------------------------------|
    |
    | Gtr III
    |-------------------------------------|
    |-------------------------------------|
    |-------------------------------------|
    |---------------------9-9-9-9-9-9-9-9-|
    |-----7-7-10-10-10-10-----------------|
    |--0----------------------------------||-------------------------------------------|-------------------------------------|
    |-------------------------------------------|-------------------------------------|
    |-------------------------------------------|-------------------------------------|
    |-(2)---------------------------------------|-2-----------------------------------|
    |-(2)---------------------------------------|-2-----------------------------------|
    |-(0)---------------------------------------|-0-----------------------------------|
    |
    |-------------------------------------------|-------------------------------------|
    |-------------------------------------------|-------------------------------------|
    |-------------------------------------------|-------------------------------------|
    |-------10-10-10-10-------------------------|-------------------9-9-9-9-9-9-9-9---|
    |-------------------9-9-9-9-------10-10-9-9-|---7-7-10-10-10-10-------------------|
    |--8--8---------------------10-10-----------|-0-----------------------------------|
    
    
      Gtr IV
    |-------------------------------------||--------------------------------------|
    |-------------------------------------||o---------------------5-5-5-5-5-5-5-5-|
    |-------------------------------------||-----------4--4-----------------------|
    |-------------------------------------||--5-5---------------------------------|
    |-------------------------------------||o-----7-7--------7--7-----------------|
    |-------------------------------------||--------------------------------------|
    |
    |-------------------------------------||--------------------------------------|
    |-------------------------------------||o-------------------------------------|
    |-----7-7-7-7-------------------------||--------------------------------------|
    |-----------------10-10-10-10-----9-9-||----------------------9-9-9-9-9-9-9-9-|
    |-------------0-0---------------------||o-----7-7-10-10-10-10-----------------|
    |-8-8-------------------------7-7-----||--0-----------------------------------|
    
    
                       
    
                                               4x
    |------------------------------------------||
    |-----------------------------------------o||
    |-5-5-------------4-4----------------------||
    |------7--7--7--7-----5-5--5--5--4--4-4-4--||
    |-----------------------------------------o||
    |------------------------------------------||
    |
    |                                          4x
    |------------------------------------------||
    |-----------------------------------------o||
    |------------------------------------------||
    |-----10-10-10-10--------------------------||
    |-----------------9-9-9-9-------10-10-9-9-o||
    |-8-8---------------------10-10------------||
    
    long huh? lol
     

    Тональность:

    Нет текста!



    Назад
    Рекомендуем посмотреть другие песни исполнителя «In Flames»:

    • Комментарии Facebook ()
    • Комментарии ВКонтакте



    Добавить в Избранное Браузера
    Сохранить здесь Очистить


    x

    0


    +
    -

    +
    -

    -

    Авторизация





    Зарегистрироваться

    M

    Дата и время

    • 15:42:03
       

    Социальные ссылки


    Наши приложения

    • Muzbank App Play Market
    • Muzbank Amazon App