MUZBANK



A Most Complete Bank Of Music Information

МУЗЫКАЛЬНО-ИНФОРМАЦИОННЫЙ БАНК

Поиск по сайту







    IIn Flames • The Quiet Place (аккорды и текст - chords & lyrics)


    154

    Print

    Видео «The Quiet Place (In Flames)»

    Видео клипы к песне подбираются автоматически сайтом youtube. Возможны некоторые несоответствия клипов песне.

    ↑ Спрятать рекламу ↑



    Download



     
    
    
    Tuning: Drop A# (A# F A# D# G C)
     
    INTRO
    With Delay
    C ----17--------------18-17---22-17----18------17----17----17----------
    G -15----18-15-----15--------------18------15----15----18----18--------
    D#-------------15~-----------------------------------------------------
    A#---------------------------------------------------------------------
    F ---------------------------------------------------------------------
    A#---------------------------------------------------------------------
    
    Guitar 1
    C ---------------------------------------------------------------------
    G ---------------------------------------------------------------------
    D#---------------------------------------------------------------------
    A#-0-0-0-0-0-0-0-0-0-0-0-0-0-0-0-0-0-0-5-5-5-5-5-5-5-5/8-8-8-8-8-8-8-8-
    F -0-0-0-0-0-0-0-0-0-0-0-0-0-0-0-0-0-0-5-5-5-5-5-5-5-5/8-8-8-8-8-8-8-8-
    A#-0-0-0-0-0-0-0-0-0-0-0-0-0-0-0-0-0-0-5-5-5-5-5-5-5-5/8-8-8-8-8-8-8-8-
    
    Guitar 2
    C ---------------------------------------------------------------------
    G ---------------------------------------------------------------------
    D#-7-7-7-7-7/9-9-9-9-9/10101010101097-3-3-3-3-3-3-3-3-3-3-3-3-3-3-3-3
    A#-x-x-x-x-x-x-x-x-x-x-x-x-x-x-x-x--x-x-x-x-x-x-x-x-x-x-x-x-x-x-x-x-x-x
    F -5-5-5-5-5/7-7-7-7-7/8-8-8-8-8-8-751-1-1-1-1-1-1-1-1-1-1-1-1-1-1-1
    A#---------------------------------------------------------------------
    
    Guitar 1
    C ---------------------------------------------------------------------
    G ---------------------------------------------------------------------
    D#---------------------------------------------------------------------
    A#-0-0-0-0-0-0-0-0-0-0-0-0-0-0-0-0-0-0-5-5-5-5-5-5-5-53-3-3-3-3-3-3-3-
    F -0-0-0-0-0-0-0-0-0-0-0-0-0-0-0-0-0-0-5-5-5-5-5-5-5-53-3-3-3-3-3-3-3-
    A#-0-0-0-0-0-0-0-0-0-0-0-0-0-0-0-0-0-0-5-5-5-5-5-5-5-53-3-3-3-3-3-3-3-
    
    Guitar 2                                                              
    C ---------------------------------------------------------------------
    G ---------------------------------------------------------------------
    D#-7-7-7-7-7/9-9-9-9-9/10101010101097-3-3-3-3-3-3-3-3/5-5-5-5-5-5-5-5
    A#-x-x-x-x-x-x-x-x-x-x-x-x-x-x-x-x--x-x-x-x-x-x-x-x-x-x-x-x-x-x-x-x-x-x
    F -5-5-5-5-5/7-7-7-7-7/8-8-8-8-8-8-751-1-1-1-1-1-1-1/3-3-3-3-3-3-3-3
    A#---------------------------------------------------------------------
    
    Repeat
    
    FILL
    
    C ----------------------------
    G ----------------------------
    D#----------------------------
    A#-x-5-5--x-5-5--x-5-5--x-5-5-
    F -x-3-3--x-3-3--x-3-3--x-3-3-
    A#-x------x------x------x-----
    
    VERSE: Two Guitars    REPEAT TWICE
    C -----------------|------------------------------
    G -----------------|------------------------------
    D#-----------------|------------------------------
    A#-0-0--------5-5--|-0-0--------5-5--x-5-5--x-5-5-
    F -0-0--------5-5--|-0-0--------5-5--x-3-3--x-3-3-
    A#-0-0--------5-5--|-0-0--------5-5--x------------
    
    
    PRE-CHORUS: Two Guitars
    C -----------------------------------------------
    G -----------------------------------------------
    D#-----------------------------------------------
    A#-----------------------------------------------
    F -0-0--0-8--0-0-0--0-8-3-3-3--3-3--3-3-3--3-3-
    A#-0-0--0-8--0-0-0--0-8-3-3-3--3-3--3-3-3--3-3-
                                     Pm          Pm
    
    C ---------------------------------------------------
    G ---------------------------------------------------
    D#---------------------------------------------------
    A#-----------------------------------5-5-5-5-5-5-5-5-
    F -0-0--0-8-0-0-0--0-8-3-3-3--3-3--3-3-3-3-3-3-3-3-
    A#-0-0--0-8-0-0-0--0-8-3-3-3--3-3------------------
                                         Pm.............
    
    CHORUS - Same as INTRO
    
    VERSE
    PRE-CHORUS
    
    BRIDGE - Two Guitars
    C ------------------------------
    G ------------------------------
    D#------------------------------
    A#-0-0-----0-0--------0-----0-0-
    F -0-0-----0-0-----0--0-----0-0-
    A#-0-0-----0-0-----0--0-----0-0-
                      Pm
    
    C -----------------------
    G -----------------------
    D#-----------------------
    A#-85-5--5--5--5-5--53-
    F -85-5--5--5--5-5--53-
    A#-85-5--5--5--5-5--53-
    
    C ---------------------
    G ---------------------
    D#---------------------
    A#-5-5--5--5--5-5--53-
    F -5-5--5--5--5-5--53-
    A#-5-5--5--5--5-5--53-  (x2)
    
    
    C ----------------------------
    G ----------------------------
    D#----------------------------
    A#-5-5--5--5--3-3-3-3-3-3-3-3-
    F -5-5--5--5--1-1-1-1-3-3-3-3-
    A#-5-5--5--5----------3-3-3-3-
                 pm.............
    
    C ------
    G ------
    D#------
    A#--0~--
    F --0~--
    A#--0~--
    
    CHORUS
    
    END
    C ---------------------------------
    G ---------------------------------
    D#---------------------------------
    A#-x-5-5--x-5-5--x-5-5--x-5-5------
    F -x-3-3--x-3-3--x-3-3--x-3-3--0-0-
    A#-x------x------x------x------0-0-
                                   Pm
     

    Тональность:

    Нет текста!



    Назад
    Рекомендуем посмотреть другие песни исполнителя «In Flames»:

    • Комментарии Facebook ()
    • Комментарии ВКонтакте



    Добавить в Избранное Браузера
    Сохранить здесь Очистить


    x

    0


    +
    -

    +
    -

    -

    Авторизация





    Зарегистрироваться

    M

    Дата и время

    • 00:59:26
       

    Социальные ссылки


    Наши приложения

    • Muzbank App Play Market
    • Muzbank Amazon App