MUZBANK



A Most Complete Bank Of Music Information

МУЗЫКАЛЬНО-ИНФОРМАЦИОННЫЙ БАНК

Поиск по сайту







    IIncubus • Calgona (аккорды и текст - chords & lyrics)


    208

    Print

    Видео «Calgona (Incubus)»

    Видео клипы к песне подбираются автоматически сайтом youtube. Возможны некоторые несоответствия клипов песне.

    ↑ Спрятать рекламу ↑



    Download


     
    
    
    Intro
    (Clean)
    e|------------------------------
    B|-2--2--2--2-----3--3--3--3----
    G|--2--2--2--2-----3--3--3--3---
    D|---3--3--3--3-----4--4--4--4-- x3
    A|------------------------------
    E|------------------------------
    
    Riff 1
    (Distortion)
    e|----------------
    B|----------------
    G|--------5-------
    D|-2*22-4-5-4-2-4-
    A|-2*22-4-3-4-2-4-
    E|-0*00-2---2-0-2-
    
    Verse (Verse 1 only)
    e|-0-0--------0-0--------0-0--------0-0--
    B|-0-0--------0-0--------0-0--------0-0--
    G|-0-0--------0-0--------0-0--------0-0--  x2
    D|-0-0--------0-0--------0-0--------0-0--
    A|---------------------------------------
    E|---------------------------------------
    
    Bridge
    (Phaser)
    e|---------------------------
    B|----4------4------4------4-
    G|----3------3------3------3-  x2
    D|--4-------4------4------4--
    A|-2-------2------2------2---
    E|---------------------------
    
    Chorus
    (Distortion)
    e|-------------------------------------------------------------------------
    B|-------------------------------------------------------------------------
    G|-4-4---------2---4-4---------------4-4---------2---4-4---------7---------
    D|-4-4---4-5-4-2---4-4---4-5-4-------4-4---4-5-4-2---4-4---4-5-4-7---------
    A|-2-2---4-5-4-0---2-2---4-5-4-------2-2---4-5-4-0---2-2---4-5-4-5---------
    E|-------2-3-2-----------2-3-2-------------2-3-2-----------2-3-2-----------
                                                
    
    Verse
    (Distortion)
    e|------------0-
    B|------------0-
    G|--444-44-0-
    D|------------0-  x12
    A|--------------
    E|--------------
    
    Outro
    (Distortion)
    e|--1--1--1---------1--1--1--------------------------
    B|--0--0--0---------0--0--0--------------------------
    G|--3--3--3---------3--3--3--------------------------
    D|-------------------------------------------------2-
    A|-------------------------------------------------2-
    E|-------------------------------------------------0-
     

    Тональность:

    Нет текста!



    Назад
    Рекомендуем посмотреть другие песни исполнителя «Incubus»:

    • Комментарии Facebook ()
    • Комментарии ВКонтакте



    Добавить в Избранное Браузера
    Сохранить здесь Очистить


    x

    0


    +
    -

    +
    -

    -

    Авторизация





    Зарегистрироваться

    M

    Дата и время

    • 11:54:04
       

    Социальные ссылки


    Наши приложения

    • Muzbank App Play Market
    • Muzbank Amazon App