MUZBANK



A Most Complete Bank Of Music Information

МУЗЫКАЛЬНО-ИНФОРМАЦИОННЫЙ БАНК

Поиск по сайту







    IIncubus • Drive Acoustic (аккорды и текст - chords & lyrics)


    295

    Print

    Видео «Drive Acoustic (Incubus)»

    Видео клипы к песне подбираются автоматически сайтом youtube. Возможны некоторые несоответствия клипов песне.

    ↑ Спрятать рекламу ↑



    Download


     
    
    
    Inubus-Drive
    
    Reg. Tuning : EBDGAE
    
    |------0-0-0-------------0-0-0---x-x-x-|
    |------8-8-8-------------5-5-5---5-5-5-|
    |------0-0-0---7-7-7-----4-4-4---x-x-x-| you can figure out the 
    |---9--9-9-9---7-7-7-----5-5-5---5-5-5-|stumming patterns on your own
    |------7-7-7-7-5-5-5-5-3-3-3-3---x-x-x-|
    |-0----0-0-0-------------------5-5-5-5-|
    
    Chorus:
    
    |-0-0-0-0----------|
    |-5-5-5-5--2-2-3-2-|  repeat over and over.   agian figue out the 
    |-4-4-4-4--0-0-0-0-|  strumming pattern.
    |-5-5-5-5--2-2-2-2-|
    |-3-3-3-3----------|
    |-0-0-0-0----------|
    
    |-0-7-5-3-0---0-0------0---0-3-5-7-5-10-7-5-7-0----0--|
    |-----------3-----3--5---5----------------------3-5-3-|
    |-----------------------------------------------------|
    |-----------------------------------------------------|
    |-----------------------------------------------------|
    |-----------------------------------------------------|
    
    |7-7-5-5-3-3--0---------|
    |------------5--3-------|
    |-----------------4-2-4-|
    |-----------------------|
    |-----------------------|
    |-----------------------|
     

    Тональность:

    Нет текста!



    Назад
    Рекомендуем посмотреть другие песни исполнителя «Incubus»:

    • Комментарии Facebook ()
    • Комментарии ВКонтакте



    Добавить в Избранное Браузера
    Сохранить здесь Очистить


    x

    0


    +
    -

    +
    -

    -

    Авторизация





    Зарегистрироваться

    M

    Дата и время

    • 12:50:23
       

    Социальные ссылки


    Наши приложения

    • Muzbank App Play Market
    • Muzbank Amazon App