MUZBANK



A Most Complete Bank Of Music Information

МУЗЫКАЛЬНО-ИНФОРМАЦИОННЫЙ БАНК

Поиск по сайту







    IIncubus • Nice To Know You (аккорды и текст - chords & lyrics)


    187

    Print

    Видео «Nice To Know You (Incubus)»

    Видео клипы к песне подбираются автоматически сайтом youtube. Возможны некоторые несоответствия клипов песне.

    ↑ Спрятать рекламу ↑



    Download


     
    
    
    I am very sure about my tab...enjoy.
    |-7----|
    |-10---|
    |-11---|
    |-9----|
    |------|
    |------|
    Intro
    Needed for the Intro:
    -Delay
    -Phaser
    What to do: Swell the volume on the guitar to get this streaming sound.
    
    
    |----------------------------------------------------|
    |----------------------------------------------------|
    |---------7--7-7----------------7--7-7---------------|
    |-0-4-4-4-7--7-7-0-4-4--0-4-4-4-7--7-7-0-4-4-4/7-7---|
    |-0-4-4-4-5--5-5-0-4-4--0-4-4-4-5--5-5-0-4-4-4/7-7---|
    |-0-2-2-2-0--0-0-0-2-2--0-2-2-2-0--0-0-0-2-2-2/5-5---|
    Chorus
    Needed for the Chorus:
    -Distortion
    
    
    |-7--------|
    |-10-------|
    |-11-------|
    |-9--------|
    |-----~~~--|
    |-----~~~--|
    Verse
    Needed for the Verse:
    -Delay
    -Phaser
    What to do: Just like playing the intro but the ~ means to slide your pick.
    You play the swelled notes then you do a pick slide. You can hear it very distintly
    in the song. Also when you do the pick slide, you still have delay and phaser on.
    
    
    |-0---|-0---|-0---|-0---| |--------|
    |-0---|-0---|-0---|-0---| |--------|
    |-2---|-1---|-4---|-3---| |-7-72--| X2
    |-2---|-2---|-5---|-4---| |-7-72--|
    |-0---|-2---|-5---|-4---| |-5-5--|_Play this part once 
    |-----|-0---|-----|-----| |--------|in the middle
    PreChorus
    What to do: It really does take awhile to tab out the strum pattern...so your
    on your own with that. You can still hear how he plays it, those are just the
    chords Mike uses. 
    
    |----------0-0-----------0-0-0--------------------|
    |----------0-0-----------0-0-0--------------------|
    |----------0-0-----------0-0-2--------------------|
    |----------4-2-----------4-2-2--------------------|
    |-0-3-5-0--5-3--0-3-5-0--5-3-0--------------------|
    |-------------------------------------------------|
    
    |-----------------0-0-0------------------0-0-0----|
    |-------------0---0-3-0--------------0---0-0-0----|
    |------------0-0--0-0-0-------------0-0--0-0-2----|
    |-----------4-----2-2-2------------4-----2-4-2----|
    |-0-3-5-0--5------3-3-3--0-3-5-0--5------3-5-0----|
    |-------------------------------------------------|
    
    |----------0-0-0-0-----------------0-0-0----------|
    |----------0-0-3-0--------------0--0-0-0----------|
    |----------0-0-0-0-------------0-0-0-0-2----------|
    |----------4-2-2-2------------4----2-4-2----------|
    |-0-3-5-0--5-3-3-3--0-3-5-0--5-----3-5-0----------|
    |-------------------------------------------------|
    Bridge
    Find out about the strumming pattern by listening to the song.
    
    Song Order:
    Intro: As many swells as it takes. 0:01-0:36
    Chorus: X4 0:37-0:58
    Verse: As many swells and pick slides it takes. 0:58-1:19
    PreChorus: X2 1:20-1:44 
    Chorus: X4 1:45-2:07
    Verse: 2:08-2:28
    PreChorus: X2 2:28-2:53
    Chorus: X4 2:54-3:15
    Bridge: X1  3:15-3:52
    PreChorus: X2 3:53-4:18
    Chorus: X4 4:18-4:43
    End on:
    
    |----|
    |----|
    |-2--| 
    |-2--|
    |-0--|
    |-0--| X2
     

    Тональность:

    Нет текста!



    Назад
    Рекомендуем посмотреть другие песни исполнителя «Incubus»:

    • Комментарии Facebook ()
    • Комментарии ВКонтакте



    Добавить в Избранное Браузера
    Сохранить здесь Очистить


    x

    0


    +
    -

    +
    -

    -

    Авторизация





    Зарегистрироваться

    M

    Дата и время

    • 02:20:19
       

    Социальные ссылки


    Наши приложения

    • Muzbank App Play Market
    • Muzbank Amazon App