MUZBANK



A MOST COMPLETE BANK OF MUSIC INFORMATION

МУЗЫКАЛЬНО-ИНФОРМАЦИОННЫЙ БАНК







    IIncubus • No Scrubs (аккорды и текст - chords & lyrics)


    379

    Print

    Видео «No Scrubs (Incubus)»

    Видео клипы к песне подбираются автоматически сайтом youtube. Возможны некоторые несоответствия клипов песне.

    ↑ Спрятать рекламу ↑





     
    
    
    Album: Live on 120 Minutes 
    
    Chords:
    E|---|-5-|---|---|
    B|-5-|-5-|---|-0-|
    G|-7-|-5-|---|-2-|
    D|-7-|-7-|-2-|-2-|
    A|-5-|-7-|-2-|-0-|
    E|---|-5-|---|---|
       D   A   E   A2
    
    Verse:
       Riff A    Riff B     Riff C     Riff D
    E|-------1-|-------0-|---------|-3--1p0---0-|
    B|-----1-1-|-----1-1-|-------3-|--------3---|
    G|---2-----|---2-----|-----1-1-|------------|
    D|-0-------|---------|---2-----|------------|
    A|---------|-0-------|-2-------|------------|
    E|---------|---------|---------|------------|
    
    Chorus:
    D, A, E, A2
    
    Song Structure:
    They tune up and strum a few chords... then... 2nd DJ thing...
    Riff A 
    Riff B |= Play this 
    Riff C |= 4 times
    Riff B /
    
    Riff A 
    Riff B |= Play this
    Riff C |= 1 time
    Riff D /
    
     

    Тональность:

    Это должно быть в ТОП-листе! - Топ-лист композиций



    Назад
    Рекомендуем посмотреть другие песни исполнителя «Incubus»:

    • Комменты Fb ()
    • Комменты ВК



    Добавить в Избранное Браузера
    Сохранить здесь Очистить


    x

    0


    +
    -

    +
    -

    -

    Авторизация





    Зарегистрироваться

    M

    Дата и время

    • 00:33:23
       

    Социальные ссылки


    Наши приложения

    • Muzbank App Play Market
    • Muzbank Amazon App