MUZBANK



A Most Complete Bank Of Music Information

МУЗЫКАЛЬНО-ИНФОРМАЦИОННЫЙ БАНК

Поиск по сайту







    IIncubus • Still Not A Player (аккорды и текст - chords & lyrics)


    201

    Print

    Видео «Still Not A Player (Incubus)»

    Видео клипы к песне подбираются автоматически сайтом youtube. Возможны некоторые несоответствия клипов песне.

    ↑ Спрятать рекламу ↑



    Download


     
    
    
    ----------------------------------------------------------------------------------------------
    
    	     SONG: Still Not A Player
    	     BAND: Incubus ft. Big Punisher
    	    ALBUM: Loud Rocks!
       TRANSCRIBED BY: Chris Frazier
    	     DATE: 04-20-2K1
    
     ----------------------------------------------------------------------------------------------
    
    	TUNING: Standard (E, B, G, D, A, E)
    
         Riff 1: w/ wah
        E|-7----------5----------|
        B|-7----------5----------|
        G|-8-x-x-x-x--6--x-x-x-x-|
        D|-9-x-x-x-x--7--x-x-x-x-|
        A|-9-x-x-x-x--7--x-x-x-x-|
        E|-7----------5----------|
    
         Riff 2: w/ distortion
        E|-------------------------------------------------|
        B|-------------------------------------------------|
        G|----------------------------6--6-6---------------|
        D|-9--9-9-9---7--7-7-7-7-7-7--6--6-6--4--4-4-4-4-4-|
        A|-9--9-9-9---7--7-7-7-7-7-7--4--4-4--4--4-4-4-4-4-|
        E|-7--7-7-7---5--5-5-5-5-5-5----------2--2-2-2-2-2-|
    
         Riff 3: w/ some odd effects and volume swells
        E|-7----------5---------------4-------2------------|
        B|-7----------5---------------4-------2------------|
        G|-8----------6---------------6-------3------------|
        D|-9----------7---------------6-------4------------|
        A|-9----------7---------------4-------4------------|
        E|-7----------5---------------4-------2------------|
     

    Тональность:

    Нет текста!



    Назад
    Рекомендуем посмотреть другие песни исполнителя «Incubus»:

    • Комментарии Facebook ()
    • Комментарии ВКонтакте



    Добавить в Избранное Браузера
    Сохранить здесь Очистить


    x

    0


    +
    -

    +
    -

    -

    Авторизация





    Зарегистрироваться

    M

    Дата и время

    • 16:47:54
       

    Социальные ссылки


    Наши приложения

    • Muzbank App Play Market
    • Muzbank Amazon App