MUZBANK



A Most Complete Bank Of Music Information

МУЗЫКАЛЬНО-ИНФОРМАЦИОННЫЙ БАНК

Поиск по сайту







    IIncubus • Warning (ver 8) (аккорды и текст - chords & lyrics)


    181

    Print

    Видео «Warning (ver 8) (Incubus)»

    Видео клипы к песне подбираются автоматически сайтом youtube. Возможны некоторые несоответствия клипов песне.

    ↑ Спрятать рекламу ↑



    Download


     
    
    
    Warning
    Incubus
    Standard Tuning
    
    Intro/Verse:
    Delay + flanger
    e:------------------    --------
    B:--4--------2-(2)--    --------
    G:--4--------2-(2)--    --4--3--
    D:--4--------2-(2)-- x3 --5--4--
    A:--2--------0-(0)--    --5--4--
    E:------------------    --3--2--
    
    e:------------------    --------
    B:--4--------2-(2)--    --------
    G:--4--------2-(2)--    -----4--
    D:--4--------2-(2)-- x3 --2--5--
    A:--2--------0-(0)--    --2--5--
    E:------------------    --0--3--
    
    Pre-Chorus
    e:-----------------------------------------------
    B:-----------------------------------------------
    G:-----------------------------------------------
    D:--4-(4)-(4)-(4)-(4)-(4)-(4)-2-(2)--------------
    A:--4-(4)-(4)-(4)-(4)-(4)-(4)-2-(2)--------------
    E:--2-(2)-(2)-(2)-(2)-(2)-(2)-0-(0)--------------
    
    Chorus:  distorted
    e:-----------------------    ------------------------
    B:-------------------2-22    ------------------------
    G:--4-44-4-44-4-444--2-22    --4-44-44-44-3-33-3333--
    D:--4-44-4-44-4-444--2-22 x3 --5-55-55-55-4-44-4444--
    A:--2-22-2-22-2-222--0-00    --5-55-55-55-4-44-4444--
    E:-----------------------    --3-33-33-33-2-22-2222--
    
    e:-----------------------    ------------------------
    B:-------------------2-22    ------------------------
    G:--4-44-4-44-4-444--2-22    --2-22-22-22-4-44-4444--
    D:--4-44-4-44-4-444--2-22 x3 --2-22-22-22-5-55-5555--
    A:--2-22-2-22-2-222--0-00    --2-22-22-22-5-55-5555--
    E:-----------------------    --0-00-00-00-3-33-3333--
    
    Post-Chorus:  distorted
    e:-----------------------
    B:-------------------2^--
    G:--4-44-4-44-4-444--2^--
    D:--4-44-4-44-4-444--2^-- x4
    A:--2-22-2-22-2-222------
    E:-----------------------
                         ^bend slightly
    Interlude:
    e:------------------    --------
    B:--4--------2-(2)--    --------
    G:--4--------2-(2)--    --4--3--
    D:--4--------2-(2)-- x3 --5--4--
    A:--2--------0-(0)--    --5--4--
    E:------------------    --3--2--
    
    e:------------------    --------
    B:--4--------2-(2)--    --------
    G:--4--------2-(2)--    -----4--
    D:--4--------2-(2)-- x3 --2--5--
    A:--2--------0-(0)--    --2--5--
    E:------------------    --0--3--
    
    LAYOUT
    Intro/verse
    Pre-Chorus
    Chorus
    Post-chorus
    Verse
    Pre-Chorus
    Chorus
    Pre-Chorus(Bridge)
    Interlude
    Chorus (no vocals)
    Chorus (w/vocals)
    Outro (chorus repeated)
     

    Тональность:

    Нет текста!



    Назад
    Рекомендуем посмотреть другие песни исполнителя «Incubus»:

    • Комментарии Facebook ()
    • Комментарии ВКонтакте



    Добавить в Избранное Браузера
    Сохранить здесь Очистить


    x

    0


    +
    -

    +
    -

    -

    Авторизация





    Зарегистрироваться

    M

    Дата и время

    • 07:29:48
       

    Социальные ссылки


    Наши приложения

    • Muzbank App Play Market
    • Muzbank Amazon App