MUZBANK



A Most Complete Bank Of Music Information

МУЗЫКАЛЬНО-ИНФОРМАЦИОННЫЙ БАНК

Поиск по сайту







    IInfectious Grooves • Please Excuse This Funk Up (аккорды и текст - chords & lyrics)


    266

    Print

    Видео «Please Excuse This Funk Up (Infectious Grooves)»

    Видео клипы к песне подбираются автоматически сайтом youtube. Возможны некоторые несоответствия клипов песне.

    ↑ Спрятать рекламу ↑



    Download


     
    
    
    This is one of my first tabs but its pretty acurate, however he improvises alot
    through the main riff. Also theres a hell of a lot of mutin through the song and
    it just adds to the funk but u acn miss them out and still get the tune...
    
    intro:
    g|--3h5-0---|---xxxx--3/10-3/10--|
    
    Main riff:
    g|----0-5-6h7------------------------|
    d|-------------0-3h5-----------------|
    a|--------------------1--------1-1---|
    e|--3--------------------3-1-3-----0-|
    
    Verse:
    g|-------------------------------------|-----------------------------3-----|
    d|------------------------3h5-5-3h5h3--|-------------------------3h5---5-3-|
    a|-----------------x-1/3-------------3-|-----------------xxx-1-3-----------|
    e|--3-x-x-x-1-1-3----------------------|--3-x-x-x-1-1-3--------------------|
    Mess round with these riffs improvise round them. Theres to many variations to tab.
    
    Main riff
    
    Chorus:
    g|------------5--5---5---5------7----7---7----7-------------------|
    d|----------------------------------------------------5-7-7-5-----|
    a|-33333333-3--3--33--33--3/5-55--55--55---55-----5h7---------5---|
    e|----------------------------------------------------------------|
    on last chorus:
    g|------------5--5--5--------7--7--7------------5-7------|
    d|------------------------------------------5-7-----5----|
    a|-33333333-3--3--3--3-3/5-5--5--5--5-x-5h7-----------5--|
    e|-------------------------------------------------------|
    
    Bass Solo bit:
    g|----0-5-6h7--------------------------3h5h3----------|
    d|-------------0-3h5-----------3-3-3h5-------5-x-3----|
    a|-------------------1-----3-5---------------------3--|
    e|--3------------------33-5---------------------------|
    
    g|----0-5-6h7--------------------------------5------------3----------------|
    d|-------------0-3h5-------------3-------5-7---7-5----3-5---5--------------|
    a|--------------------1------3-5--5-3-------------------------3----1h3-1---|
    e|--3--------------------333------------------------------------1-3------1-|
    
    Main riff
    Chorus
    Main riff
    
    Outro
    g|----0-5-6h7--------------------------|
    d|-------------0-3h5-------------------|
    a|--------------------1--------1-1-----|
    e|--3--------------------3-1-3-----3/0-|
    
    If you have any corretions or questions just email me.
     

    Тональность:

    Нет текста!



    Назад
    Рекомендуем посмотреть другие песни исполнителя «Infectious Grooves»:

    • Комментарии Facebook ()
    • Комментарии ВКонтакте



    Добавить в Избранное Браузера
    Сохранить здесь Очистить


    x

    0


    +
    -

    +
    -

    -

    Авторизация





    Зарегистрироваться

    M

    Дата и время

    • 09:49:27
       

    Социальные ссылки


    Наши приложения

    • Muzbank App Play Market
    • Muzbank Amazon App