MUZBANK



A Most Complete Bank Of Music Information

МУЗЫКАЛЬНО-ИНФОРМАЦИОННЫЙ БАНК

Поиск по сайту







    IInme • Firefly (аккорды и текст - chords & lyrics)


    296

    Print

    Видео «Firefly (Inme)»

    Видео клипы к песне подбираются автоматически сайтом youtube. Возможны некоторые несоответствия клипов песне.

    ↑ Спрятать рекламу ↑



    Download



     
    
    
    InMe - Firefly
    
    Instrument - Bass
    Tuning - Drop D (DADG)
    Tabber - Michael Dixon
    
    The timin and order isnt there but its easy enough.
    A great english grunge/prog rock band, and i think there gonna be huge.
    As an englishman/child im only 14 im pretty proud 2 have a band like that
    in my country! BIG THUMBS UP! THE ONLY GOOD NEW GRUNGE BAND ABOUT!
    
    Intro
    
    G -------------------|----------------|
    D ------1h2-1h2-1h2--|----------------|
    A --5-0-------------5|----------------|
    D 3------------------|---3-5-2---1h2p1|
    
    Verse
    
    
    G ------|--------------|
    D ------|--------------|
    A --5-0-|--------------|
    D 3-----|-3-5-2---1h2p1|
    
    Pre Chorus
    
    Pt.1
    
    G -----------------------------------|
    D ---------------------------5-5-5-5-|
    A 3-3-3-3--6-6-6-6--7-7-7-7----------|
    D -----------------------------------|
    
    Pt.2
    
    G ---------------------------------|
    D ---------------------------------|
    A 3-3-3-3--6-6-6-6--7-7-7-7-7-7-7-7|
    D ---------------------------------|
    
    Chorus
    
    
    G ----------------------------------|
    D ----------------------------------|
    A 2-2-2-2--7-7-7-7--0-0-0-0-0-0-0-0-|
    D ----------------------------------|
     

    Тональность:

    Нет текста!



    Назад
    Рекомендуем посмотреть другие песни исполнителя «Inme»:

    • Комментарии Facebook ()
    • Комментарии ВКонтакте



    Добавить в Избранное Браузера
    Сохранить здесь Очистить


    x

    0


    +
    -

    +
    -

    -

    Авторизация





    Зарегистрироваться

    M

    Дата и время

    • 11:38:26
       

    Социальные ссылки


    Наши приложения

    • Muzbank App Play Market
    • Muzbank Amazon App