MUZBANK



A Most Complete Bank Of Music Information

МУЗЫКАЛЬНО-ИНФОРМАЦИОННЫЙ БАНК

Поиск по сайту







    IInme • Firefly (аккорды и текст - chords & lyrics)


    197

    Print

    Видео «Firefly (Inme)»

    Видео клипы к песне подбираются автоматически сайтом youtube. Возможны некоторые несоответствия клипов песне.

    ↑ Спрятать рекламу ↑



    Download



     
    
    
    After seeing InMe live like 6 times, i thought id better post the real way this is played
    so here you are:     (anything wrong with this just email me marsey2k2002@aol.com or add me 
    marsey2k2@hotmail.com.   Im Always open to compliments mhuh ha ha)
    
    Standard Tuning     
    
    Key:
    * = Normal Harmonics
    h = Hammer On     (obviously)
    / = Slide
    c = Choke Strings
    ^ = Bend String(s)
    
    
    Intro:- Flanger, Delay, Very Little Wah (very little)
    
    E:|--0---5*------0--0-----0---12*--------0-----0-----------------|
    B:|--0----5*-----0----0---0-----12*------0---0-------------------|
    G:|--2-----5*----2--------2-------12*----0-----------------------|
    D:|--3------5*---2--------3---------12*--2-----------------------|
    A:|--------------------------------------------------------------|
    E:|--------------------------------------------------------------|
    
    E:|--0---5*------0--0-----0---12*--------0-----0-----------------|
    B:|--0----5*-----0----0---0-----12*------0---0-------------------|
    G:|--2-----5*----2--------2-------12*----0-----------------------|
    D:|--3------5*---2--------3---------12*--2-----------------------|
    A:|--------------------------------------------------------------|
    E:|--------------------------------------------------------------|
    
    
    
    Verse 1 Played By Bass.
    
    
    
    
    Bridge:- Flanger, Distorted   
    
    E:|-------------------------------------------------------------|
    B:|-------------------------------------------------------------|
    G:|-4c----------------------------------------------------------|
    D:|-4c--55555555--88888888--99999999--44444444------------------|
    A:|-2c--33333333--66666666--77777777--22222222------------------|
    E:|-2c----------------------------------------------------------|
            ........  ........  ........  ........
    
    E:|-------------------------------------------------------------|
    B:|-------------------------------------------------------------|
    G:|-------------------------------------------------------------|
    D:|---55555555--88888888--9999999999999999----------------------|
    A:|---33333333--66666666--7777777777777777----------------------|
    E:|-------------------------------------------------------------|
          ........  ........  ................
    
    E:|-------------------------------------------------------------|
    B:|-------------------------------------------------------------|
    G:|-44----------------------------------------------------------|
    D:|-44--55555555--88888888--99999999--44444444------------------|
    A:|-22--33333333--66666666--77777777--22222222------------------|
    E:|-22----------------------------------------------------------|
            ........  ........  ........  ........
    
    E:|-------------------------------------------------------------|
    B:|-------------------------------------------------------------|
    G:|-------------------------------------------------------------|
    D:|-55555555--88888888------------------------------------------|
    A:|-33333333--66666666------------------------------------------|
    E:|-------------------------------------------------------------|
        ........  ........  
    
    
    
    Pre Chorus
    
    E:|-------------------------------------------------------------|
    B:|-------------------------------------------------------------|
    G:|-------------------------------------------------------------|
    D:|--9h10-9h10-9h10-9h10-9h10-9h10-9h10-9h10--------------------|
    A:|-------------------------------------------------------------|
    E:|-------------------------------------------------------------|
    
    
    Chorus:- Distorted
    
    E:|-------------------------------------------------------------|
    B:|-------------------------------------------------------------|
    G:|-9999------------------9999----------------------------------|
    D:|-9999--9999--77777777--7777--9999--77777777------------------|
    A:|-7777--9999--77777777--7777--9999--77777777------------------|
    E:|-0000--7777--55555555--0000--7777--55555555------------------|
    
    E:|-------------------------------------------------------------|
    B:|-------------------------------------------------------------|
    G:|-9999------------------9999----------------------------------|
    D:|-9999--9999--77777777--9999--9999--7777-7-77-77-77-----------|
    A:|-7777--9999--77777777--7777--9999--7777-7-77-77-77-----------|
    E:|-0000--7777--55555555--0000--7777--5555-5-55-55-55-----------|
    
    
    Verse Two:- Distorted
    
    E:|-------------------------------------------------------------|    
    B:|-------------------------------------------------------------|    
    G:|-------------------------------------------------------------|    
    D:|-------------------------------------------------------------|    
    A:|-------------------------------------------------------------|    
    E:|-1--1/5--5/1---3-0-----0-1--1/5--5/1---3-0-------------------|    
    
    
    Bridge:- Flanger, Distorted   
    
    E:|-------------------------------------------------------------|
    B:|-------------------------------------------------------------|
    G:|-4c----------------------------------------------------------|
    D:|-4c--55555555--88888888--99999999--44444444------------------|
    A:|-2c--33333333--66666666--77777777--22222222------------------|
    E:|-2c----------------------------------------------------------|
            ........  ........  ........  ........
    
    E:|-------------------------------------------------------------|
    B:|-------------------------------------------------------------|
    G:|-----------------------------------------44------------------|
    D:|-55555555--88888888--9999999999999999----44------------------|
    A:|-33333333--66666666--7777777777777777----22------------------|
    E:|-----------------------------------------22------------------|
        ........  ........ .................
    
    
    E:|-------------------------------------------------------------|
    B:|-------------------------------------------------------------|
    G:|-------------------------------------------------------------|
    D:|---55555555--88888888--99999999--44444444--------------------|
    A:|---33333333--66666666--77777777--22222222--------------------|
    E:|-------------------------------------------------------------|
          ........  ........  ........  ........
    
    E:|-------------------------------------------------------------|
    B:|-------------------------------------------------------------|
    G:|-------------------------------------------------------------|
    D:|-55555555--88888888------------------------------------------|
    A:|-33333333--66666666------------------------------------------|
    E:|-------------------------------------------------------------|
        ........  ........  
    
    Pre Chorus
    
    E:|-------------------------------------------------------------|
    B:|-------------------------------------------------------------|
    G:|-------------------------------------------------------------|
    D:|--9h10-9h10-9h10-9h10-9h10-9h10-9h10-9h10--------------------|
    A:|-------------------------------------------------------------|
    E:|-------------------------------------------------------------|
    
    
    Chorus:- Distorted
    
    E:|-------------------------------------------------------------|
    B:|-------------------------------------------------------------|
    G:|-9999------------------9999----------------------------------|
    D:|-9999--9999--77777777--7777--9999--77777777------------------|
    A:|-7777--9999--77777777--7777--9999--77777777------------------|
    E:|-0000--7777--55555555--0000--7777--55555555------------------|
    
    E:|-------------------------------------------------------------|
    B:|-------------------------------------------------------------|
    G:|-9999------------------9999----------------------------------|
    D:|-9999--9999--77777777--9999--9999--7777-7-77-77-77-----------|
    A:|-7777--9999--77777777--7777--9999--7777-7-77-77-77-----------|
    E:|-0000--7777--55555555--0000--7777--5555-5-55-55-55-----------|
    
    
    
    Extra Chorus:- Distorted
    
    E:|-------------------------------------------------------------|
    B:|-------------------------------------------------------------|
    G:|-------------------------------------------------------------|
    D:|-----------7777--9999-------------------7777--999-9-99-99-99-|
    A:|-10101010--5555--7777--9999---10101010--5555--777-7-77-77-77-|
     

    Тональность:

    Нет текста!



    Назад
    Рекомендуем посмотреть другие песни исполнителя «Inme»:

    • Комментарии Facebook ()
    • Комментарии ВКонтакте



    Добавить в Избранное Браузера
    Сохранить здесь Очистить


    x

    0


    +
    -

    +
    -

    -

    Авторизация





    Зарегистрироваться

    M

    Дата и время

    • 01:25:48
       

    Социальные ссылки


    Наши приложения

    • Muzbank App Play Market
    • Muzbank Amazon App